Song name
# A B C D E F G H I J K L M N O P Q R S T U V W X Y Z

Phair Liz - Favorite tab

Verse:
|----------------------------------------|
|----------------------------------------|
|------1-------------------------4-------|
|-----2---------7--------4------4--------|
|----2---------7--------4------2---------|
|-------------5--------2-----------------|

Pre-chorus:
|----------------------------------------|
|----------------------------------------|
|------------------1-------4-------------|
|------4-----7----2-------4-------7------|
|-----4-----7----2-------2-------7-------|
|----2-----5--------------------5--------|

Chorus:
|----------------------------------------|
|----------------------------------------|
|------1------4--------------------------|
|-----2------4-------7------4------------|
|----2------2-------7------4-------------|
|------------------5------2--------------|
Tap to rate this tab
 
# A B C D E F G H I J K L M N O P Q R S T U V W X Y Z