Song name
# A B C D E F G H I J K L M N O P Q R S T U V W X Y Z

Phantogram - Mouthful Of Diamonds tab

Title:	Mouthful of Diamonds
Artist:	Phantogram
Album:	Eyelid Movies
Label:  Barsuk Records

http://www.phantogram.net/


Josh - Guitar (Standard Tuning)

________________________
Intro:

	5 measures of rest...


________________________
Main Riff:

     Q    E  E  E  E  E  E      E  E  E   E  E  E  E  E
e||-------------0-----------|---------0---------0--------|
B||-------3--------3-----3--|------6---------8-----8-----|
G||--5-------5--------5-----|--/7--------/9-----------9--|
D||-------------------------|----------------------------|
A||-------------------------|----------------------------|
E||-------------------------|----------------------------|


    Q     E   E  E   E   E   E     E  E  E  E  E  E  E  E
-----------------0--------------|--------0-----------0-----|
---------10---------10------10--|-----8--------6--------6--|
--/12--------12---------12------|--9--------7-----7--------|
--------------------------------|--------------------------|
--------------------------------|--------------------------|
--------------------------------|--------------------------|


  Q    E  E  E  E  E  E      E  E  E   E  E  E  E  E
-------------0-----------|---------0---------0--------|
-------3--------3-----3--|------6---------8-----8-----|
--5-------5--------5-----|--/7--------/9-----------9--|
-------------------------|----------------------------|
-------------------------|----------------------------|
-------------------------|----------------------------|


    Q     E   E  E   E   E   E     E  E  E  E  E  E  E  E     W
-----------------0--------------|--------0--------0--------|-------------------|
---------10---------10------10--|-----8--------6-----6-----|-------------------|
--/12--------12---------12------|--9--------7-----------7--|--5----------------|
--------------------------------|--------------------------|-------------------|
--------------------------------|--------------------------|-------------------|
--------------------------------|--------------------------|-------------------|

___________________________
Verse ("Wake up..."):

	No guitar

___________________________
Chorus ("You've got a mouth full of diamonds..."):


   E   E  E   E   E   E  E   E      E   E  E   E   E   E  E   E
----------0--------------0------|----------0--------------0------|
------13-----13------13-----13--|------12-----12------12-----12--|
--14-------------14-------------|--14-------------14-------------|
--------------------------------|--------------------------------|
--------------------------------|--------------------------------|
--------------------------------|--------------------------------|


   E   E  E   E   E   E  E   E      E   E  E   E   E   E  E   E
----------0--------------0------|----------0--------------0------|
------10-----10------10-----10--|------10-----10------10-----10--|
--12-------------12-------------|--12-------------12-------------|
--------------------------------|--------------------------------|
--------------------------------|--------------------------------|
--------------------------------|--------------------------------|


   E   E  E   E   E   E  E   E      E   E  E   E   E   E  E   E
----------0--------------0------|----------0--------------0------|
------13-----13------13-----13--|------12-----12------12-----12--|
--14-------------14-------------|--14-------------14-------------|
--------------------------------|--------------------------------|
--------------------------------|--------------------------------|
--------------------------------|--------------------------------|


   E   E  E   E   E   E  E   E      E   E  E   E   E   E  E   E
----------0--------------0------|----------0--------------0------|
------10-----10------10-----10--|------10-----10------10-----10--|
--12-------------12-------------|--12-------------12-------------|
--------------------------------|--------------------------------|
--------------------------------|--------------------------------|
--------------------------------|--------------------------------|


  E  E  E  E   E  E  E  E     E  E  E  E   E  E  E  E     E  E  E  E   E  E  E  E
--------0------------0-----|--------0------------0-----|--------0------------0-----|
-----6-----6------8-----8--|-----6-----6------8-----8--|-----3-----3------6-----6--|
--7-----------/9-----------|--7-----------/9-----------|--5-----------/7-----------|
---------------------------|---------------------------|---------------------------|
---------------------------|---------------------------|---------------------------|
---------------------------|---------------------------|---------------------------|


   E  E  E  E    E   E  E   E
---------0--------------0------|
------8-----8-------10-----10--|
--/9-----------/12-------------|
-------------------------------|
-------------------------------|
-------------------------------|

__________________________
Main Riff x1

__________________________
Verse ("Wasted..."):

Note: This might not be entirely accurate. Do whatever you think sounds good, it's not 
important.


  E  E  E  E  E  E  E  E     E  E  E  E  E  E  E  E     E  E  E  E  E  E  E  E
--------------------------|--------------------------|--------------------------|
--5--5--5--5--5--5--5--5--|--5--5--5--5--5--5--5--5--|--5--5--5--5--5--5--5--5--|
--5--5--5--5--5--5--5--5--|--5--5--5--5--5--5--5--5--|--5--5--5--5--5--5--5--5--|
--------------------------|--------------------------|--------------------------|
--------------------------|--------------------------|--------------------------|
--------------------------|--------------------------|--------------------------|


  E  E  E  E  E  E  E  E     E  E  E  E  E  E  E  E     E  E  E  E  E  E  E  E
--------------------------|--------------------------|--------------------------|
--5--5--5--3--3--3--3--3--|--5--5--5--5--5--5--5--5--|--5--5--5--5--5--5--5--5--|
--5--5--5--5--5--5--5--5--|--5--5--5--5--5--5--5--5--|--5--5--5--5--5--5--5--5--|
--------------------------|--------------------------|--------------------------|
--------------------------|--------------------------|--------------------------|
--------------------------|--------------------------|--------------------------|


  E  E  E  E  E  E  E  E     E  E  E  E  E  E  E  E     E  E  E  E  E  E  E  E
--------------------------|--------------------------|--------------------------|
--5--5--5--5--5--5--5--5--|--5--5--5--3--3--3--3--3--|--5--5--5--5--5--5--5--5--|
--5--5--5--5--5--5--5--5--|--5--5--5--5--5--5--5--5--|--5--5--5--5--5--5--5--5--|
--------------------------|--------------------------|--------------------------|
--------------------------|--------------------------|--------------------------|
--------------------------|--------------------------|--------------------------|


  E  E  E  E  E  E  E  E     E  E  E  E  E  E  E  E     E  E  E  E  E  E  E  E
--------------------------|--------------------------|--------------------------|
--5--5--5--5--5--5--5--5--|--5--5--5--5--5--5--5--5--|--5--5--5--3--3--3--3--3--|
--5--5--5--5--5--5--5--5--|--5--5--5--5--5--5--5--5--|--5--5--5--5--5--5--5--5--|
--------------------------|--------------------------|--------------------------|
--------------------------|--------------------------|--------------------------|
--------------------------|--------------------------|--------------------------|


  E  E  E  E  E  E  E  E     E  E  E  E  E  E  E  E     E  E  E  E  E  E  E  E
--------------------------|--------------------------|--------------------------|
--5--5--5--5--5--5--5--5--|--5--5--5--5--5--5--5--5--|--5--5--5--5--5--5--5--5--|
--5--5--5--5--5--5--5--5--|--5--5--5--5--5--5--5--5--|--5--5--5--5--5--5--5--5--|
--------------------------|--------------------------|--------------------------|
--------------------------|--------------------------|--------------------------|
--------------------------|--------------------------|--------------------------|


  E  E  E  E  E  E  E  E
--------------------------|
--5--5--5--3--3--3--3--3--|
--5--5--5--5--5--5--5--5--|
--------------------------|
--------------------------|
--------------------------|

__________________________
2nd Chorus

	No guitar

__________________________
Main Riff x3

Duration Legend
---------------
W - whole
H - half
Q - quarter
E - 8th


Tablature Legend
----------------
/ -  slide into from below or out of upwards
Tap to rate this tab
 
# A B C D E F G H I J K L M N O P Q R S T U V W X Y Z