Song name
# A B C D E F G H I J K L M N O P Q R S T U V W X Y Z

Phantogram - When Im Small Acoustic tab

Main part

E------3------1------6--|
B------3------1------6--|
G------3------2------7--|
D------5------3------8--|
A------5------3------8--|
E------3------1------6--|

Chorus

E-----------------------|
B-----------------------|
G------12--------3------|
D-----13--------5-------|
A----13--------5--------|
E---11--------3---------|
Tap to rate this tab
 
# A B C D E F G H I J K L M N O P Q R S T U V W X Y Z