Song name
# A B C D E F G H I J K L M N O P Q R S T U V W X Y Z

Phantogram - A Dark Tunnel tab

Guitar arpeggio at 3:45 to end of song.

(/) Slide Up  (\) Slide Down  (h) Hammer On  (p) Pull Off  (b) Bend (r) Release (v) Vibrato


E|--8--------8--------8--------8--------7--------7--------7--------7--------|--------|--|
B|-----8--------8--------8--------8--------8--------8--------8--------8-----|--8/13--|--|
G|--------9--------9--------9--------9--------9--------9--------9--------9--|--------|--|
D|--------------------------------------------------------------------------|--------|--|
A|--------------------------------------------------------------------------|--------|--|
E|--------------------------------------------------------------------------|--------|--|



E|--15----------15------15----------15----------12----------12----------13----------12----------|
B|------15----------15------15----------15----------13----------13----------13----------13------|
G|----------17------------------17----------14----------14----------14----------14----------14--|
D|----------------------------------------------------------------------------------------------|
A|----------------------------------------------------------------------------------------------|
E|----------------------------------------------------------------------------------------------|



E|--12----------12----------13----------12----------|--|
B|------13----------13----------13----------13------|--|
G|----------14----------14----------14----------14--|--|
D|--------------------------------------------------|--|
A|--------------------------------------------------|--|
E|--------------------------------------------------|--|

at end repeat everything, and it keeps going the rest of the song.

For [!]g*  (:
Tap to rate this tab
# A B C D E F G H I J K L M N O P Q R S T U V W X Y Z