Song name
# A B C D E F G H I J K L M N O P Q R S T U V W X Y Z

Phantogram - Futuristic Casket tab

Tuning:noramal

Intro chords

       F         G
e|-----8-8-8-8-8-10-10--|
B|-----7-7-7-7-7-11-11--|
G|-----6-6-6-6-6-12-12--|
D|-----6-6-6-6-6-12-12--|
A|-----8-8-8-8-8-10-10--|
E|-----8-8-8-8-8-10-10--|

Bass

e|-----------------|
B|-----------------|
G|-----------------|
D|-----------------|
A|--------------3--|
E|-1-1-1-1-1---3---|



Arpegioes

e|-----------------------------|
B|--8-9----------8-9-----------|
G|-----10----x4------8------x4-|   ...and I don't know to last one
D|-------11------------10------|
A|-----------------------------|
E|-----------------------------|
Tap to rate this tab
# A B C D E F G H I J K L M N O P Q R S T U V W X Y Z