Song name
# A B C D E F G H I J K L M N O P Q R S T U V W X Y Z

Phantom Planet - Leader tab

Help us improve GuitareTab! Take a short survey!
Song: "Leader"
Artist: Phantom Planet
Album: Raise the Dead
Site: www.youtube.com/tintagelruins

Tab created July 24, 2008

INTRO (2x)
-0-0-0000-4-4-4444-2-2-2222-77777777-|
-0-0-0000-5-5-5555-2-2-2222-77777777-|
-1-1-1111-6-6-6666-2-2-2222-88888888-|
-2-2-2222-6-6-6666-4-4-4444-77777777-|
-2-2-2222-4-4-4444-4-4-4444-99999999-|
-0-0-0000----------2-2-2222-77777777-|

VERSE 1 (2x)
-0-0-0000-4-4-4444-2-2-2222-77777777-|
-0-0-0000-5-5-5555-2-2-2222-77777777-|
-1-1-1111-6-6-6666-2-2-2222-88888888-|
-2-2-2222-6-6-6666-4-4-4444-77777777-|
-2-2-2222-4-4-4444-4-4-4444-99999999-|
-0-0-0000----------2-2-2222-77777777-|

then this comes in (2x) (Listen to the song for the rhythm)
-----------------------|
-99-77-55--10-10-99-77-|
-99-88-66--11-11-99-88-|
-----------------------|
-----------------------|
-----------------------|

VERSE 2 (2x)
-3-3-3333-7-7-7777-5-5-5555-5-5-5555-|
-3-3-3333-8-8-8888-5-5-5555-7-7-7777-|
-4-4-4444-9-9-9999-5-5-5555-5-5-5555-|
-5-5-5555-9-9-9999-7-7-7777-7-7-7777-|
-5-5-5555-7-7-7777-7-7-7777-5-5-5555-|
-3-3-3333----------5-5-5555----------|

CHORUS (2x)
-00--44--22--22-|
-00--55--22--44-|
-11--66--22--22-|
-22--66--44--44-|
-22--44--44--22-|
-00------22-----|

SOLO
-12-11-12-11-12-----11----------------------------------------------------------|
------------------12--14--14--------------------------------------10------------|
----------------13------13--13---13------14-13-14-13-14---13-14-11--11-9-8------|
-------------------------------14--14-13-----------------------------------11-9-|
--------------------------------------------------------12----------------------|
--------------------------------------------------------------------------------|

VERSE 3 (2x)
-0-0-0000-4-4-4444-2-2-2222-77777777-|
-0-0-0000-5-5-5555-2-2-2222-77777777-|
-1-1-1111-6-6-6666-2-2-2222-88888888-|
-2-2-2222-6-6-6666-4-4-4444-77777777-|
-2-2-2222-4-4-4444-4-4-4444-99999999-|
-0-0-0000----------2-2-2222-77777777-|

then (2x) (Dont know exactly what they play, but these chords go with it)
-0-0-0000-0-0-0000-0-0-0000-2-2-2222-3-3-3333-0-0-0000-0-0-0000-2-2-2222-|
-0-0-0000-0-0-0000-1-1-1111-3-3-3333-4-4-4444-0-0-0000-1-1-1111-3-3-3333-|
-1-1-1111-0-0-0000-2-2-2222-2-2-2222-4-4-4444-0-0-0000-2-2-2222-2-2-2222-|
-2-2-2222-2-2-2222-2-2-2222-0-0-0000-5-5-5555-2-2-2222-2-2-2222-0-0-0000-|
-2-2-2222-2-2-2222-0-0-0000----------5-5-5555-2-2-2222-0-0-0000----------|
-0-0-0000-0-0-0000-------------------3-3-3333-0-0-0000-------------------|

CHORUS (3x)

SOLO (2x)
-12-11-12-11-12-----11----------------------------------------------------------|
------------------12--14--14--------------------------------------10------------|
----------------13------13--13---13------14-13-14-13-14---13-14-11--11-9-8------|
-------------------------------14--14-13-----------------------------------11-9-|
--------------------------------------------------------12----------------------|
--------------------------------------------------------------------------------|

--------------------11----------------------------------------------------------|
------------------12--14--14--------------------------------------10------------|
----------------13------13--13---13------14-13-14-13-14---13-14-11--11-9-8------|
-14-13-14-13-14----------------14--14-13-----------------------------------11-9-|
--------------------------------------------------------12----------------------|
--------------------------------------------------------------------------------|

LAST CHORUS (8x)
-2-2-2222-4-4-4444-0-0-0000-0-0-0000-|
-3-3-3333-5-5-5555-0-0-0000-2-2-2222-|
-2-2-2222-4-4-4444-0-0-0000-2-2-2222-|
-0-0-0000-4-4-4444-2-2-2222-2-2-2222-|
----------2-2-2222-2-2-2222-0-0-0000-|
-------------------0-0-0000----------|

On the 5th time, this guitar comes in (4x)
------------------------|
-10--12--12--13^(14)-12-|
------------------------|
------------------------|
------------------------|
------------------------|
Related for Leader tab