Song name
# A B C D E F G H I J K L M N O P Q R S T U V W X Y Z

Phantom Planet - Do The Panic Acoustic tab

Help us improve GuitareTab! Take a short survey!
Do The Panic Tab by Phantom Planet
Intro
e|----------------------------------------------|
b|----------------------------------------------|
g|----------------------------------------------|
d|----6---4---2-----6---6---6---4---6---4-------|
a|----0---0---0-----0---0---0---0---0---0-------|
e|----------------------------------------------|

e|-------------------------------------|
b|-------------------------------------|
g|-------------------------------------|
d|----6---4---2-----6---6---6---4------|
a|----0---0---0-----0---0---0---0------|
e|-------------------------------------|

Verse: 
e|-----------------------------------------------------|
b|-----------------------------------------------------|
g|--9---------------------------6----------------------|
d|--9---------------------------6----------------------|
a|--7---------------------------4----------------------|
e|-----------------------------------------------------|

e|------------------------------------|
b|------------------------------------|
g|--2---------------------------4-----|
d|--2---------------------------4-----|
a|--0---------------------------2-----|
e|------------------------------------|

e|-----------------------------------------------------|
b|-----------------------------------------------------|
g|--9---------------------------6----------------------|
d|--9---------------------------6----------------------|
a|--7---------------------------4----------------------|
e|-----------------------------------------------------|

e|---------------------------------------------|
b|---------------------------------------------|
g|--2------------------------------------4-----|
d|--2------------------------------------4-----|
a|--0------------------------------------2-----|
e|---------------------------------------------|

e|---------------------------------------------|
b|---------------------------------------------|
g|--2-------------------------4----------------|
d|--2-------------------------4----------------|
a|--0-------------------------2----------------|
e|---------------------------------------------|

e|----------------------------------------------|
b|----------------------------------------------|
g|----------------------------------------------|
d|-6---4---2-----6---6---6---4---6---4----------|
a|-0---0---0-----0---0---0---0---0---0----------|
e|----------------------------------------------|



e|-------------------------------------|
b|-------------------------------------|same as Intro
g|-------------------------------------|repeat a
d|-6---4---2-----6---6---6---4---------|
a|-0---0---0-----0---0---0---0---------|
e|-------------------------------------|

Chorus: 
e|------------------------------------------------------|
b|------------------------------------------------------|
g|------------------------------------------------------|
d|---2---------------------7----------9-----------2-----|
a|---2---------------------7----------9-----------2-----|
e|---0---------------------5----------7-----------0-----|

e|------------------------------------------------------|
b|------------------------------------------------------|
g|------------------------------------------------------|
d|---2---------------------7----------9-----------2-----|
a|---2---------------------7----------9-----------2-----|
e|---0---------------------5----------7-----------0------
e|------------------------------------------------------|
b|------------------------------------------------------|
g|------------------------------------------------------|
d|---2---------------------7----------9-----------2-----|
a|---2---------------------7----------9-----------2-----|
e|---0---------------------5----------7-----------0-----|

e|------------------------------------------------------|
b|------------------------------------------------------|
g|------------------------------------------------------|
d|---2---------------------7----------9-----------2-----|
a|---2---------------------7----------9-----------2-----|
e|---0---------------------5----------7-----------0-----|

Repeat intro
Do the same thing for the next verse and chorus.  That's it. 
Related for Do The Panic Acoustic tab