Song name
# A B C D E F G H I J K L M N O P Q R S T U V W X Y Z

Phantom Planet - Dropped tab

                      Artist:  Phantom Planet
              Lyrics and Music:  Alexander Greenwald
                      Album:  Raise the Dead
                   Release Date:  April 15, 2008


            If you know the song you can find the rhythms.


Intro/Verse:


Guitar 1:

e|-----0-------------------------------0-------------------------|
b|-3-------3-------3-------3-------3-------3---------------3-----|
g|---------------------5---------------------------5---4---------|
D|---0---0---0-0-0---0---0---0-0-0---0---0---0-0-0---0---0-------|
A|---------------------------------------------------------------|
E|---------------------------------------------------------------|  x2


After this is played twice Guitar 2 enters while Guitar 1 continues to play.  Listen to 
song for the rhythm.  After Guitar 2 enters both Guitars play together twice and repeat 
during the verse.


Guitar 2:

e|-5-5-5--5-5-5-5--5-5-5--3-3-3-5--------|
b|-7-5-7--7-7-5-7--7-5-7--5-5-3-7--------|
g|-7-5-7--7-7-5-7--7-5-7--5-5-4-7--------|
D|-7-5-7--7-7-5-7--7-5-7--5-5-3-7--------|
A|-5-5-5--5-5-5-5--5-5-5--3-3-3-5--------|
E|---------------------------------------|


e|----------------------------------------------|
b|-7---7-8-8--5-5-5-5--3-3-5-3--2-2--2-2--------|
g|-7---7-7-7--5-5-6-6--3-3-3-3--2-2--2-2--------|
D|----------------------------------------------|
A|----------------------------------------------|
E|----------------------------------------------|
 "Tell me..."              "...know."   "Won'tcha

e|----------------------------------------------|
b|-7---7-8-8--5-5-5-5--3-3-5-3--2---------------|
g|-7---7-7-7--5-5-6-6--3-3-3-3--2---------------|
D|----------------------------------------------|
A|----------------------------------------------|
E|----------------------------------------------|
  Stop..."                 "...know."

Chorus:

e|-5-5-5----5-5-5-5------5-5-5----3-3-3-5--------|
b|-7-5-7----7-7-5-7------7-5-7----5-5-3-7--------|
g|-7-5-7----7-7-5-7------7-5-7----5-5-4-7--------|
D|-7-5-7----7-7-5-7------7-5-7----5-5-3-7--------|
A|-5-5-5----5-5-5-5------5-5-5----3-3-3-5--------|
E|-----------------------------------------------|
        DROP       WHATCHA    GOT!        NOW!    x2


In the second chorus the music is a bit different at this point:

   G                F
e|-3----------------1------------------------------|
b|-3----------------1------------------------------|
g|-0----------------2------------------------------|
D|-0----------------3------------------------------|
A|-2----------------3------------------------------|
E|-3-----------------------------------------------|
     "In the ivory dome; you made it your home

   A                             C
e|-0-----------------------------0-----------------|
b|-2-----------------------------1-----------------|
g|-2-----------------------------0-----------------|
D|-2-----------------------------2-----------------|
A|-0-----------------------------3-----------------|
E|-------------------------------------------------|
  "See you in the sills, smiling ear to ear, never gonna go

e|----------------------------------------------|
b|-7---7-8-8--5-5-5-5--3-3-5-3--2-2--2-2--------|
g|-7---7-7-7--5-5-6-6--3-3-3-3--2-2--2-2--------|
D|----------------------------------------------|
A|----------------------------------------------|
E|----------------------------------------------|
 "Do  you..."              "...know."   "Won'tcha

e|----------------------------------------------|
b|-7---7-8-8--5-5-5-5--3-3-5-3--2---------------|
g|-7---7-7-7--5-5-6-6--3-3-3-3--2---------------|
D|----------------------------------------------|
A|----------------------------------------------|
E|----------------------------------------------|
  Stop..."                 "...know."

Chorus:

e|-5-5-5----5-5-5-5------5-5-5----3-3-3-5--------|
b|-7-5-7----7-7-5-7------7-5-7----5-5-3-7--------|
g|-7-5-7----7-7-5-7------7-5-7----5-5-4-7--------|
D|-7-5-7----7-7-5-7------7-5-7----5-5-3-7--------|
A|-5-5-5----5-5-5-5------5-5-5----3-3-3-5--------|
E|-----------------------------------------------|
        DROP       WHATCHA    GOT!        NOW!    x2

   G                F       A       C
e|-3----------------1-------0-------0-----------------|
b|-3----------------1-------2-------1-----------------|
g|-0----------------2-------2-------0-----------------|
D|-0----------------3-------2-------2-----------------|
A|-2----------------3-------0-------3-----------------|
E|-3--------------------------------------------------|
     DROP!             WHATCHA     GOT!    NOW!*


*Immediately start playing this
e|-----------------------------------------------|
b|-7-8-7\-5-6-5\-3-5-3-2-------------------------|
g|-7-7-7\-5-5-5\-3-3-3-2-------------------------|
D|-----------------------------------------------|
A|-----------------------------------------------|
E|-----------------------------------------------|

This repeats while Guitar 1 plays this simultaneously (with heavy distortion):


e|--------------------------6-8-10--12-15h16h17---|
b|-------------------6-8-10-----------------------|
g|-------------5-7-9------------------------------|
D|-------5-7-9------------------------------------|
A|-5-5-9------------------------------------------|
E|------------------------------------------------|

 Guitar 2:
e|----------------------------------------------|
b|-7---7-8-8--5-5-5-5--3-3-5-3--2-2--2-2--------|
g|-7---7-7-7--5-5-6-6--3-3-3-3--2-2--2-2--------|
D|----------------------------------------------|
A|----------------------------------------------|
E|----------------------------------------------|
 "Tell me..."              "...know."   "Won'tcha

e|----------------------------------------------|
b|-7---7-8-8--5-5-5-5--3-3-5-3--2---------------|
g|-7---7-7-7--5-5-6-6--3-3-3-3--2---------------|
D|----------------------------------------------|
A|----------------------------------------------|
E|----------------------------------------------|
  Stop..."*                 "...know."

*Guitar 1 plays this immediately (with heavy distorion) following "Stop" (that last note 
this sequence should coincide with the word "Know":

e|--------------------------6-8-10--12-15h16h17---|
b|-------------------6-8-10-----------------------|
g|-------------5-7-9------------------------------|
D|-------5-7-9------------------------------------|
A|-5-5-9------------------------------------------|
E|------------------------------------------------|


Chorus:

e|-5-5-5----5-5-5-5------5-5-5----3-3-3-5--------|
b|-7-5-7----7-7-5-7------7-5-7----5-5-3-7--------|
g|-7-5-7----7-7-5-7------7-5-7----5-5-4-7--------|
D|-7-5-7----7-7-5-7------7-5-7----5-5-3-7--------|
A|-5-5-5----5-5-5-5------5-5-5----3-3-3-5--------|
E|-----------------------------------------------|
        DROP       WHATCHA    GOT!        NOW!    x2


   G                F       A       C
e|-3----------------1-------0-------0----------------|
b|-3----------------1-------2-------1----------------|
g|-0----------------2-------2-------0----------------|
D|-0----------------3-------2-------2----------------|
A|-2----------------3-------0-------3----------------|
E|-3-------------------------------------------------|
     DROP!             WHATCHA     GOT!


G
Tell me that you want me
F
Tell me that you need me
A                           C
Tell me 'cause I'd like to know

Now!

e|-5-5-5--5-5-5-5--5-5-5--3-3-3-5--------|
b|-7-5-7--7-7-5-7--7-5-7--5-5-3-7--------|
g|-7-5-7--7-7-5-7--7-5-7--5-5-4-7--------|
D|-7-5-7--7-7-5-7--7-5-7--5-5-3-7--------|
A|-5-5-5--5-5-5-5--5-5-5--3-3-3-5--------|
E|---------------------------------------|  x2


e|-----0-------------------------------0-------------------------|
b|-3-------3-------3-------3-------3-------3---------------3-----|
g|---------------------5---------------------------5---4---------|
D|---0---0---0-0-0---0---0---0-0-0---0---0---0-0-0---0---0-------|
A|---------------------------------------------------------------|
E|---------------------------------------------------------------|  x2
Tap to rate this tab
# A B C D E F G H I J K L M N O P Q R S T U V W X Y Z