Song name
# A B C D E F G H I J K L M N O P Q R S T U V W X Y Z

Phantom Planet - Do The Panic chords

Highlighted       Show chord diagrams
Intro (copied from another tab)
e|----------------------------------------------|
b|----------------------------------------------|
g|----------------------------------------------|
d|----6---4---2-----6---6---6---4---6---4-------|
a|----0---0---0-----2---2---2---2---2---2-------|
e|----------------------------------------------|

e|-------------------------------------|
b|-------------------------------------|
g|-------------------------------------|
d|----6---4---2-----6---6---6---4------|
a|----0---0---0-----2---2---2---2------|
e|-------------------------------------|

Verse:

E
Guess we're all in trouble, huh?
C#
Black clouds are upon us
A                                   B
It's doomsday on the other side of town.
      E
That boy survived a severed head
      C#
When most would just give up for dead,
   A                            B
So I said: "Al B. don't get so upset."
    A                              B
We all get scared of sticking our own necks

It's expected!

E            A
Come on come on
              B       E
It's time to lose control!
E             A
Come on come on
               B  E      
Turn off your radio!
E            A
Come on come on
              B       E
You're gonna feel alright!
E             A
Come on come on
              B         E
Let's do the panic tonight!


and that repeats throughout the song
Tap to rate this tab
 
# A B C D E F G H I J K L M N O P Q R S T U V W X Y Z