Song name
# A B C D E F G H I J K L M N O P Q R S T U V W X Y Z

Phantom Planet - Leader tab

-------------------------------------------------------------------------------
			     LEADER - Phantom Planet
-------------------------------------------------------------------------------
Tabbed by: Daniel Love (Vash_15
Email: vash_i5@yahoo.com

Tuning: Standard

Standard tuning, this is how I hear it, hopefully I'm right. This is my first tab, 
so I'm just hoping it goes over well.


INTRO/VERSE

e|--------------------------------------------------------------------------|
B|--------------------------------------------------------------------------|
G|--------------6-6--6----------------------4-4--4--------------------------|
D|-2-2--2-------6-6--6-(x4)---4-4--4--------4-4--4(x4)----------------------|
A|-2-2--2(x4)---4-4--4--------4-4--4-(x4)---2-2--2--------------------------|
E|-0-0--0---------------------2-2--2----------------------------------------|


CHORUS

e|--------------------------------------------------------------------------|
B|--------------------------------------------------------------------------|
G|--------------6----6----------------------4----4--------------------------|
D|-2----2-------6----6--------4----4--------4----4--------------------------|
A|-2----2-------4----4--------4----4--------2----2--------------------------|
E|-0----0---------------------2----2----------------------------------------|


SOLO

e|-12-11-12-11-12------11---------------------------------------------------|
B|----------------9-12----14----14------------------------------------------|
G|---------------------------13----13----13-------14-13-14-13-14--13-14-11--|
D|------------------------------------14----14-13---------------------------|
A|--------------------------------------------------------------12----------|
E|--------------------------------------------------------------------------|

e|--------------------------------------------------------------------------|
B|-10-----------------------------------------------------------------------|
G|----11-9-8----------------------------------------------------------------|
D|-----------11-9-----------------------------------------------------------|
A|--------------------------------------------------------------------------|
E|--------------------------------------------------------------------------|

Here's the order it all goes in, though the only repetition I'm sure about is for the solos

INTRO/VERSE
CHORUS
SOLO (x1)
VERSE
CHORUS
SOLO (x4)
CHORUS
VERSE

Hope this helped.
Tap to rate this tab
 
# A B C D E F G H I J K L M N O P Q R S T U V W X Y Z