Phantom Planet - Somebodys Baby tab

This is the tab for somebodys baby from the movie not another teen movie. 
This is my first tab so excuse me for any mistakes :) 
feel free to post any comments and suggestions

tabbed by: Allan Copuyoc

Intro, Chorus, and outro:

e|---------------------------------------------------------------|
B|---------------------------------------------------------------|
G|--10-12-10-12---10-10-12-10-12--10-10/8--8--8---12--12--10--10-|
D|--12-13-12-13---12-12-13-12-13--12-12/10-10-10--13--13--12--12-|
A|---------------------------------------------------------------|
E|---------------------------------------------------------------|

e|---------------------------------------------------------------|
B|--11--9--------------------------------------------------------|
G|--12--10--12--10--8-/10--12-12-10-8--10-8--8---8--12-12-10-10--|
D|----------13--12--10/12--13-13-12-10-12-10-10--10-13-13-12-12--|
A|---------------------------------------------------------------|
E|---------------------------------------------------------------|

Pre Chorus:
e|----------------------------------|
B|------12--9---8--9----8--6--------|
G|------13--10--8--10---8--7--------|
D|----------------------------------|
A|----------------------------------|
E|----------------------------------|

Verses: during the verse you can hear this thing:

e|--------15---13---11~~------------|
B|---16-----------------------------|
G|----------------------------------|
D|----------------------------------|
A|----------------------------------|
E|----------------------------------|
Tap to rate this tab
 
# A B C D E F G H I J K L M N O P Q R S T U V W X Y Z