Phantom Planet - Demon Daughters tab

Phantom Planet
Demon Daughters
Raise the Dead
by Daniel Love (Vash_15)
email: vash_i5@yahoo.com

Tuning: Standard (EADGBe)


My first chords tab. This is pretty close to how Alex plays it acoustically. I 
haven't been able to get the bridge down yet, but I'll update it when I do. It 
works well silent though tbh.

Chords:
C#     x46654
F#     244322
A      x02220
G#     466544
D      x00232
A#m7b5 6x665x
G#7    464544

INTRO
C# - F# - A - G#

              C#       F#         D            A
Here come the swooping hawks down blocks we've all forgotten
C#        F#          D        A
Clutching old friends in their talons
C#            F#         D        A
Down from the sky to the way back of his mind
C#         F#              D       A
To pick it clean, to leave nothing behind

C# - F# - A - G#

             C#             F#            D           A
They go from high school to high class to higher than highness
C#              F#               D          A
They're casting spells can't you tell we're helpless
C#        F#            D       A
Hard to recover for the dusty antique lover
C#      F#        D               A
But for one thing there is always another

C# F# A    G#
Demon daughters
e|----------------------------------------|
B|----------------------------------------|
G|----------------------------------------|
D|-6-6-6-6-4-4-4-4-7-7-7-7-6-6-6-6--------|
A|----------------------------------------|
E|----------------------------------------|

C#      F#  A   G#
they're all partners
e|----------------------------------------|
B|----------------------------------------|
G|----------------------------------------|
D|-6-6-6-6-4-4-4-4-7-7-7-7-6-6-6-6--------|
A|----------------------------------------|
E|----------------------------------------|

C#    F# A G#
Heads together
e|----------------------------------------|
B|----------------------------------------|
G|----------------------------------------|
D|-6-6-6-6-4-4-4-4-7-7-7-7-6-6-6-6--------|
A|----------------------------------------|
E|----------------------------------------| 

C#     F#    A G#
summon their fathers
e|----------------------------------------|
B|----------------------------------------|
G|----------------------------------------|
D|-6-6-6-6-4-4-4-4-2-2-2-2-1-1-1-1--------|
A|----------------------------------------|
E|----------------------------------------|

F#                  A#m7b5
And all hell's fury judge and jury
    F#                   A#m7b5   
You better hurry get him off
G#7 C#
his back

C# - F# - A - G#

        C#       F#       D         A
All the red, red eyes are up in the sky
        C#             F#             D         A    
And the figures they belong to are preparing to dive
               C#          F#             D         A 
Yeah they were fast as the speed of light whistling by me
    C#            F#          D       A
And they took him down it was ever so gently

C# F# A    G#
Demon daughters
e|----------------------------------------|
B|----------------------------------------|
G|----------------------------------------|
D|-6-6-6-6-4-4-4-4-7-7-7-7-6-6-6-6--------|
A|----------------------------------------|
E|----------------------------------------|

   C#  F#  A   G#
so hot and bothered
e|----------------------------------------|
B|----------------------------------------|
G|----------------------------------------|
D|-6-6-6-6-4-4-4-4-7-7-7-7-6-6-6-6--------|
A|----------------------------------------|
E|----------------------------------------|

C# F#   A G#
Burning irons
e|----------------------------------------|
B|----------------------------------------|
G|----------------------------------------|
D|-6-6-6-6-4-4-4-4-7-7-7-7-6-6-6-6--------|
A|----------------------------------------|
E|----------------------------------------|

      C#  F#   A  G#
don't get much hotter
e|----------------------------------------|
B|----------------------------------------|
G|----------------------------------------|
D|-6-6-6-6-4-4-4-4-2-2-2-2-1-1-1-1--------|
A|----------------------------------------|
E|----------------------------------------|

F#                       A#m7b5
It boils up his head all over his bed
    F#                   A#m7b5  
You better hurry get him off 
G#7 C#
his back

I found him under a mountain of blankets
And he was shaking it's what they fostered
A child a monster
His head looked crooked
Then shook and shattered you bastards!
You hatched her! You hatched her!

             C#  F#  A  G#
So they have finally broken
e|----------------------------------------|
B|----------------------------------------|
G|----------------------------------------|
D|-6-6-6-6-4-4-4-4-7-7-7-7-6-6-6-6--------|
A|----------------------------------------|
E|----------------------------------------|

     C# F#   A G#
That pumping organ
e|----------------------------------------|
B|----------------------------------------|
G|----------------------------------------|
D|-6-6-6-6-4-4-4-4-7-7-7-7-6-6-6-6--------|
A|----------------------------------------|
E|----------------------------------------|

C#      F#  A  G#
Playing old numbers
e|----------------------------------------|
B|----------------------------------------|
G|----------------------------------------|
D|-6-6-6-6-4-4-4-4-7-7-7-7-6-6-6-6--------|
A|----------------------------------------|
E|----------------------------------------|

C# F# A G#
on it again
e|----------------------------------------|
B|----------------------------------------|
G|----------------------------------------|
D|-6-6-6-6-4-4-4-4-2-2-2-2-1-1-1-1--------|
A|----------------------------------------|
E|----------------------------------------|

F#    
Something dark and true
A#m7b5
We all can sing too
F#
I know the chorus
       A#m7b5  G#7    C#
Now my brain's turned black!


C# - F# - A - G# (Play this til the end)

Demon Daughters! Demon.... daughters! x4
(All the red, red eyes are up in the sky 
And the figures they belong to are preparing to dive) x2
Tap to rate this tab
 
# A B C D E F G H I J K L M N O P Q R S T U V W X Y Z