Song name
# A B C D E F G H I J K L M N O P Q R S T U V W X Y Z

Phantom Planet - The Living Dead tab

Intro of 'The Living Dead', song by Phantom Planet. Appears in the soundtrack of the 
film 'Stubbs the Zombie'.

|--------------|--------------|
|--------------|--------------|
|--4--4--4--4--|--5--5--3--3--|
|--4--4--4--4--|--4--4--2--2--|
|--2--2--2--2--|--3--3--1--1--|
|--------------|--------------|

I think the chorus (guitar 1):

|-------------|------------|
|-------------|------------|
|-2--2--2--2--|--4h3--8h6--|
|-4--4--4--2--|--5h3--8h6--|
|-4--4--4--4--|------------|
|-------------|------------|

(guitar 2 continues with the verse)
Tap to rate this tab
# A B C D E F G H I J K L M N O P Q R S T U V W X Y Z