Song name
# A B C D E F G H I J K L M N O P Q R S T U V W X Y Z

Phantom Planet - So I Fall Again tab

-------------------------------------------------------------------------------
		     So I Fall Again - Phantom Planet
-------------------------------------------------------------------------------
Tabbed by: Kait B.
Email: kaitb607@yahoo.com

I really needed this solo for a gig, but no one seemed to have it, so I decided to stop 
lazy and just do it for myself.

Tuning: Standard (eBGDAE)

e|-----------------------------------------|
B|-13-16-13--13-16-13---11-14-11--11-14-11-|
G|-----------------------------------------|   x2
D|-----------------------------------------|
A|-----------------------------------------|
E|-----------------------------------------|

e|-------------------------------------------|
B|-------------------------------------------|
G|-----5----------5----------5----------5----|  x4
D|-------6----------6----------6----------6--|
A|---6----------6----------6----------6------|
E|-4----------2---------1----------0---------|
Tap to rate this tab
 
# A B C D E F G H I J K L M N O P Q R S T U V W X Y Z