Song name
# A B C D E F G H I J K L M N O P Q R S T U V W X Y Z

Phantom Planet - Do The Panic tab

Help us improve GuitareTab! Take a short survey!
This is how I personally play it after having watched a video of Phantom Planet
it.  Correct this if you need to, I could use suggestions.  Listen to the song for 
and timing.

Intro:
e|--x--x--x--x--x--x--x-x--x--x--x--x--x--x--x--x--------------------|
b|--x--x--x--x--x--x--x-x--x--x--x--x--x--x--x--x--------------------|
g|--x--x--x--x--x--x--x-x--x--x--x--x--x--x--x--x--------------------|
D|--6--6--6--9--9--9--9-9--9\-6--6--6--9--9--9--9--------------------|
A|--7--9--7--11-11-11-9h11-9\-7--9--7--11-11-11-9--------------------|
E|--5--5--5--7--7--7--7-7--7\-5--5--5--7--7--7--7--------------------| x4


Verse:
e|--0--x--0~--4--x--4~--5--x--5~/--7--x--7~------------------------------|
b|--0--x--0~--5--x--5~--5--x--5~/--7--x--7~------------------------------|
g|--1--x--1~--6--x--6~--6--x--6~/--8--x--8~------------------------------|
D|--2--x--2~--6--x--6~--7--x--7~/--9--x--9~------------------------------|
A|--2--x--2~--4--x--4~--7--x--7~/--9--x--9~------------------------------|
E|--0--x--0~--x--x--x~--5--x--5~/--7--x--7~------------------------------| x2


Play the intro after the second time and then go into the chorus:

Chorus (listen to the song for strumming and whatnot)

    E     A      B     E
e|--0-----5------7-----0-----|
b|--0-----5------7-----0-----|
g|--1-----6------8-----1-----|
D|--2-----7------9-----2-----|
A|--2-----7------9-----2-----|
E|--0-----5------7-----0-----|
  C'mon, C'mon...to.....control!

Solo:

e|--------------------------------------------------------------------------|
b|--------------------------------------------------------------------------|
g|------------------------11-----11\*-------14\*----------------11-----11\*-|
D|-----14\*--11-12h13--------13-----------------11-12h13----------13--------|
A|--12--------------------------------12------------------------------------|
E|---------------------14---------------------------------14----------------|

  *Slide down and release semi-quickly for kind of a fade...hard to explain.

e|-------------------------------------------------------------------------|
b|----12---------12----------------------------12--------------------------|
g|--------------------------------15---------------------------------------|
D|--9----9-11-12-----12-14-15-16------12-14-15-----9-11-12-----12-11-9-----|
A|---------------------------------------------------------9---------------|
E|-------------------------------------------------------------------------|

e|---------------------------------------------------------|
b|---------------------------------------------------------|
g|---------------------------------------------------------|
D|-------------9--------------------9------9-11-11-11\*----|
A|--------9h11---11-9h11-------9h11---9h11-----------------|
E|--11br9----------------11br9-----------------------------|

Intro again, x4

Chorus again.  You get the idea.
Related for Do The Panic tab