Song name
# A B C D E F G H I J K L M N O P Q R S T U V W X Y Z

Phantom Planet - Turn Smile Shift Repeat tab

THIS IS NOT WHAT IS ACTUALLY PLAYED BY PHANTOM PLANET. IT'S MY OWN VERSION THAT I WROTE,
IT GOES ALONG WITH THE SONG PRETTY WELL I THINK. LET ME KNOW WHAT YOU THINK.

Chords used:
B:  X24422
A: X02220
Em:  022000
Gbar: 355433
F#:  244222
D: X57755
E: 022100
G: 320033
A#:  688666
Ap:  577XXX
Gp: 355XXX
Ep: 022XXX

VERSE 1
B
Here they come the business men
A
Like a herd of cattle rumblin in
Em                                     Gbar    F# Em
The exchange has offically begun
B
Now all the offices are buzzing
A
The executives are busy bees
Em                                               G
They watch the keys turn in the employees

                       D    A       E        G         D     A       E      G
And they just turn smile shift repeat   Turn smile shift repeat

VERSE 2
B
There's a crowd forming on wallstreet
A
Near the tallest building on the block
Em                                              Gbar
A suit has lost his fortuns to the stock
B
There was no time to see his fatal flaw
A
The madness set in with the loss
Em                                                                        Gbar   F#  Em
Now he cut's their throats to watch the heads fall off

(Turn Smile Shift Repeat part 4X)

Chorus:
Gbar                        A
Decimal points and dollar signs
B                    D
Taxes penalties and fines
        Em        G          D
He's come to cut you down
Gbar                           A
Numbers, passwords, protocol
B                          D
It's not enough to save your soul
        Em        G           D
He's come to cut you down
A#                       Ap  Gp  Ep
Bringin you right back to zero

SAX SOLO:
e:---------------------------------------------|------------------------------|
B:---------------10-12-13-13~--12-------------|-------------------------------|
G:--11~12-12------------------0----10/8/7----|9-------------------------------|
D:-----------------------------12-------------|9-------------------7h9h10~----|
A:---9~10-10-----------------------10/8/7----|7----6h79h10-10~----------------|
E:---------------------------------------------|0--7--------------------------|

|-12--12---------------------|
|---13--13/12-12~---10/8/7~--|
|---12--12/11-11~------------|
|--------------------10/8/7~-|
|----------------------------|
|----------------------------|


(Turn Smile Shift Repeat part X2)

Chorus:
Gbar                        A
Decimal points and dollar signs
B                  D
Taxes, penalties and fines
        Em         G         D
He's come to cut you down
Gbar                         A
Numbers passwords protocol
B                          D
It's not enough to save your soul
        Em         G          D
He's come to cut you down
A#                       Ap   Gp Ep
Bringin you right back to zero


THE END
Tap to rate this tab
# A B C D E F G H I J K L M N O P Q R S T U V W X Y Z