Song name
# A B C D E F G H I J K L M N O P Q R S T U V W X Y Z

Pharoahe Monche - Got You tab

this song totally rocks.

e)---------7~~~~--------------------------------------7~~~~~-------|
B)---------7~~~~--------------------------------------7~~~~~-------|
G)-----------------------------------------------------------------|
D)-----9------------9-7--------------------------------------------|
A)----------------------9--7--7----5-------------------------------|
E)---7---7-----------------------------7---9-----------------------|
     ^ ^ ^
  all octaves
  of B major

put your hands....  up against the wall and spead them

e)----------------------------7~~~~~~----------------------7~~~~~~-|
B)----------------------------7~~~~~~----------------------7~~~~~~-|
G)-----------------------------------------------------------------|
D)-------------------7--7--9------------9--7-----------------------|
A)---------5--7--9-----------------------------------9--7----------|
E)----5h7----------------------------------------------------------|

competion ..@#?4%%^^(undistinguistable) got you     got you


if u get the lyrix or wanna correct it mail me @
barry_fallon2000@hotmail.com
Tap to rate this tab
# A B C D E F G H I J K L M N O P Q R S T U V W X Y Z