Song name
# A B C D E F G H I J K L M N O P Q R S T U V W X Y Z

Pharrell Williams - Happy tab

Help us improve GuitareTab! Take a short survey!
I've wrote this by ear, it sounds right.
I apologise for any mistakes: this is the first tab I've written.


Capo 1st.


Verses:

 Emaj*                                           
It might seem crazy ...                 This lick comes between each line of the verses.
                         e|----------0--------------2-----0-----------------------------------|
                         B|----------0--0-----2--0--4--2--0-----------------------------------|
                         G|----------1--0-----2--0--4--2--1-----------------------------------|
Repeat for the all the   D|----------2-----2--------------2-----------------------------------|
verses                   A|----------X--------------------X-----------------------------------|
                         E|----------X--------------------X-----------------------------------|




Chorus:
        Cmaj7
Because Im happy
Clap along if you feel like a room without a roof
        Bmaj7 
Because Im happy
Clap along if you feel like happiness is the truth
        Emaj
Because Im happy
Clap along if you know what happiness is to you
        Cmaj7
Because Im happy
Clap along if you feel like thats what you wanna do




Bridge X2:

Palm mute Emaj* for the whole bridge.

Bring me down
Cant nothing bring me down
Your love is too high to bring me down
Cant nothing bring me down
I said...



Chords:

      Emaj*   Cmaj7   Bmaj7   Emaj
e|-----0-------0-------0-------0----------------------------------------------|
B|-----0-------0-------3-------0----------------------------------------------|
G|-----1-------0-------2-------1----------------------------------------------|
D|-----2-------2-------0-------2----------------------------------------------|
A|-----X-------3-------2-------2----------------------------------------------|
E|-----X-------X-------X-------0----------------------------------------------|




-------------------------------------------------------------------------------


[Verse 1]

It might seem crazy what Im 'bout to say
Sunshine shes here, you can take a break
Im a hot air balloon that could go to space
With the air, like I dont care baby by the way

[Chorus]
Because Im happy
Clap along if you feel like a room without a roof
Because Im happy
Clap along if you feel like happiness is the truth
Because Im happy
Clap along if you know what happiness is to you
Because Im happy
Clap along if you feel like thats what you wanna do

[Verse 2]
Here come bad news talking this and that
(Yeah!) Well, give me all you got, dont hold it back
(Yeah!) Well, I should probably warn you Ill be just fine
(Yeah!) No offense to you dont waste your time
Heres why...

[Chorus]

[Bridge x2]
Bring me down
Cant nothing bring me down
Your love is too high to bring me down
Cant nothing bring me down
I said...

[Chorus]
[Bridge]
[Chorus]
Related for Happy tab