Song name
# A B C D E F G H I J K L M N O P Q R S T U V W X Y Z

Phazm - Burarum tab

-------------------------------------------------------------------------------
			     BURARUM - Phazm
-------------------------------------------------------------------------------
Tabbed by: Kyle  (opeth027)
Email: da_haus03@yahoo.com

Tuning: Bb Eb Ab Db Gb Bb Eb

from the album ANTEBELLUM DEATH 'N' ROLL
Phazm's website:  http://www.truephazm.com/

Copyright (c)  THE END RECORDS/OSMOSE USA - 2006
Version 1.0 - 30 June 07


.  - palm mute           /  - slide up to
\  - slide down to       ~  - vibrato
h  - hammer on           b  - Bend
p  - pull off            Suffixes for bend
t  - tap                 f  - full bend    h - half bend
ph - pinched harmonic    q  - quarter bend t - tap bend
*  - see comment         ^  - Hold bend    r release bend
x  - Stuccatto           ~  - vibrato bend
,  - slight palm mute    () - ghost note, sustained note
"  - tremolo note        <> - Trill


RIFF 1
|-------------------------------------------------------------------|
|-------------------------------------------------------------------|
|-------------------------------------------------------------------|
|-------------------------------------------------------------------|
|--2----------(2)----4-----3----------(3)----5----------------------|
|--2----------(2)----4-----3----------(3)----5----------------------|
|--0----------(0)----2-----1----------(1)----3----------------------|


RIFF 2
|-------------------------------------------------------------------|
|-------------------------------------------------------------------|
|-------------------------------------------------------------------|
|---------------10--9-----------------------------------------------|
|--2-------9----10--9---10qb----------------------------------------|
|--2-------9----8---7---10qb----------------------------------------|
|--0-------7-------------8qb----------------------------------------|



|-------------------------------------------------------------------|
|-------------------------------------------------------------------|
|-------------------------------------------------------------------|
|-------------------------------------------------------------------|
|--(2)--------------------------------------------------------------|
|--(2)--------------------------------------------------------------|
|--(0)--------------------------------------------------------------|


RIFF 3
|-------------------------------------------------------------------|
|---------7-5-----5----7--------------------------------------------|
|-----4---------4---------------------------------------------------|
|---4---------------------------------------------------------------|
|-------------------------------------------------------------------|
|-------------------------------------------------------------------|
|-------------------------------------------------------------------|


RIFF 4
|-------------------------------------------------------------------|
|-------------------------------------------------------------------|
|-------------------------------------------------------------------|
|-------------------------------------------------------------------|
|----------------7---7qbr-------------------------------------------|
|-7---10---7h10------------10--7-----10---9---(9)qbr----------------|
|-------------------------------------------------------------------|


There are a few little background leads/fills/effects/whatever-you- 
wanna-call-them that I'm still working on, but this is all the main 
riffs, just listen to the song for the rhythm and repeats.  Any 
questions, comments, corrections, etc., feel free to email me.  Enjoy!!
Tap to rate this tab
# A B C D E F G H I J K L M N O P Q R S T U V W X Y Z