Song name
# A B C D E F G H I J K L M N O P Q R S T U V W X Y Z

Phenomenauts - Man Alone tab

-------------------------------------------------------------------------------
			    MAN ALONE - The Phenomenauts
-------------------------------------------------------------------------------
Tabbed by: Cadet PD
Email: Ska.Boss66@gmail.com

Tuning: Standard

The fill riffs and solo coming soonish, this is just the rythmn guitar
(you can pretend you are either JoeBot or Nova. FREEDOM OF CHOICE :D )


   G A  B

e|----------------------|
B|----------------------|
G|----------------------| x4
D|-5-7--9999999999999---|
A|-5-7--9999999999999---|
E|-3-5--7777777777777---|

After that there is a little fill that can be played various ways,
I just mute the strings with my left hand and keep strumming

Verse
(All of us. We Should Shave A Mission....)
[The single notes should be palm muted in typical punk-rock fashion,
listen to the song to see what I mean-ish]

   B                                 E

e|---------------------------------------------------------------------|
B|---------------------------------------------------------------------|
G|-----------------------------------9-9-----9-9------9-9-----9-9------|
D|-9-9-----9-9------9-9-----9-9------9-9-----9-9------9-9-----9-9------|
A|-9-9-----9-9------9-9-----9-9------7-7-7-7-7-7-7-77-7-7-7-7-7-7-7-77-|
E|-7-7-7-7-7-7-7-77-7-7-7-7-7-7-7--7-----------------------------------|

               G A

 ------------------|
 ------------------|
 ------------------|
 -9-9-----9-9--5-7-| Both of these parts x 2
 -9-9-----9-9--5-7-|
 -7-7-777-7-7--3-5-|

After the second time, the pre-chorus fill type thing:
(He's a Man Alllllooooonnnnnnneeee....)

   F#                       G    A

e|-------------------------------------|
B|-------------------------------------|
G|-------------------------------------|
D|-4444444444444444444444---555--777---|
A|-4444444444444444444444---555--777---|
E|-2222222222222222222222---333--555---|

Chorus:
(This is the story of a generation...)
[Listen for exact strumming on the B power-chord]

   B                              G    A

e|------------------------------------------|
B|------------------------------------------|
G|-4444444444444444444444444444-------------|
D|-4444444444444444444444444444---555--777--|
A|-2222222222222222222222222222---555--777--|
E|--------------------------------333--555--|

  B                              G   A   F#

|-------------------------------------------|
|-------------------------------------------|
|-4444444444444444444444444444--------------|
|-4444444444444444444444444444---5---7---4--|
|-2222222222222222222222222222---5---7---4--|
|--------------------------------3---5---2--|


Then after the chorus there is a transition with a lead guitar fill that
goes back into the verse

The chord for that is E

|--0--|         |---|
|--0--|         |---|
|--0--|         |---|
|--1--|         |---|
|--2--|         |-2-|
|--2--| or just |-2-|
|--0--|         |-0-|

As a matter of fact, you Barr all the chords in this song..whatever floats your boat.
And thats the entire song minus the lead guitar riffs and such.
The solo is played over the Verse.


| /  slide up
| \  slide down
| h  hammer-on
| p  pull-off
| ~  vibrato
| +  harmonic
| x  Mute note
===============================================================================
Tap to rate this tab
# A B C D E F G H I J K L M N O P Q R S T U V W X Y Z