Song name
# A B C D E F G H I J K L M N O P Q R S T U V W X Y Z

Phenomenauts - Dont Overheat On Me tab

-------------------------------------------------------------------------------
			     Don't Overheat On Me - The Phenomenauts
-------------------------------------------------------------------------------
Tabbed by: Cadet PD	
Email: Ska.Boss66@gmail.com

Tuning: Standard


Intro and Breaks

   D

e|-------------------------|
B|-------------------------|
G|-77----77----77----77----| Till band enters
D|-77----77----77----77----|
A|-55----55----55----55----|
E|-------------------------|

  D  

e|-------------------------|
B|-------------------------|
G|-77----77----77777-------|  x3
D|-77----77----77777-------| 
A|-55----55----55555-------|
E|-------------------------|

e|-------------|
B|-------------|
G|-77----77----|  Pause, then into Verse
D|-77----77----|
A|-55----55----|
E|-------------|


Verses
(...Just Like That You Turn Me On)


  D C# Bm       E        A

e|-----2--------0--------5----------------|
B|-----3--------0--------5----------------|
G|-7-6-4--------1--------6----------------|
D|-7-6-4--------2--------7-7777777777-----| x3
A|-5-4-2--------2--------7-7777777777-----|
E|--------------0--------5-5555555555-----|

Chorus

(You Know I Will Keep You Warm...)

   D             Bm       E          A

e|-5-------------2---------------------------------------|
B|-7-------------3---------------------------------------|
G|-7-------------4--------9---9---9--7-------------------|
D|-7-------------4--------9---9---9--7-------------------|
A|-5-------------2--------7---7---7--5-------------------|
E|-------------------------------------------------------|

[Or Alternately D could be played (xx0232)]

Then go back into the verse...



Bridge
[youll have to listen a little closely to this part as the strumming 
switches up a little]


   Em    A      D     Bm
 
e|-7-----5------5------7----|
B|-8-----5------7------7----|
G|-9-----6------7------8----| X2
D|-9-----7------7------9----|
A|-7-----7------5------9----|
E|-------5-------------7----|

                                   G                 Gm

e|-7-----5---------------7---------3------------------3--------|
B|-8-----5---------------7---------3------------------3--------|
G|-9-----6------77-------8---------4------------------3--------|
D|-9-----7------77-1111--9---------5------------------5--------|
A|-7-----7------55-1111--9---------5------------------5--------|
E|-------5---------9-9---7---------3------------------3--------|

And I am definetly not cool enough to be able to get that solo down.
Maybe in the future.
And the solo is played over the bridge, until it becomes Nova's solo, which..is
played over..nothing as its just Nova's solo.


| /  slide up
| \  slide down
| h  hammer-on
| p  pull-off
| ~  vibrato
| +  harmonic
| x  Mute note
===============================================================================
Tap to rate this tab
# A B C D E F G H I J K L M N O P Q R S T U V W X Y Z