Song name
# A B C D E F G H I J K L M N O P Q R S T U V W X Y Z

Phenomenauts - Navitron tab

-------------------------------------------------------------------------------
			     Navitron - The Phenomenauts
-------------------------------------------------------------------------------
Tabbed by: CadetPD
Email: Ska.Boss66@gmail.com

Tuning: Standard

Intro 

e|----------------------|
B|----------------------|
G|----------------------|
D|----------------------| x4
A|--5-3--3-----------5--|
E|---------1--1-3--3----|


Verses

e|----------------------------------------------------------------|
B|----------------------------------------------------------------|
G|-------------------------------------------------------------2--|
D|----------------------------------------------------------------|
A|-5-5-5-5-3-3-3-3-----------------5-5-5-5-3-3-3-3-----------5----|
E|-----------------1-1-1-1-3-3-3-3-----------------1-1-1-1-3------|

e|------------------------------------------------------------------|
B|------------------------------------------------------------------|
G|------------------------------------------------------------------|
D|------------------------------------------------------------------|
A|-5-5-5-5-3-3-3-3-----------------5-5-5-5-3-3-3-3------------------|
E|-----------------1-1-1-1-3-3-3-3-----------------1-1-1-1-3-3-3-3--|

      A            G          F    D
e|----------------------------------------------------------------------|
B|----------------------------------------------------------------------|
G|---------------------------------7------------------------------------|
D|-7--7-7-7-7-7-7--5--5-5--3--3-3--7------------------------------------| 
A|-7--7-7-7-7-7-7--5--5-5--3--3-3--5-5-5-5-3-3-3-3----------------------|
E|-5--5-5-5-5-5-5--3--3-3--1--1-1----------------------1-1-1-1-3-3-3-3--|

   A               G       F       D
e|---------------------------------------|
B|---------------------------------------|
G|---------------------------------7-----|
D|-7--7-7-7-7-7-7--5--5-5--3--3-3--7-----| 
A|-7--7-7-7-7-7-7--5--5-5--3--3-3--5-----|
E|-5--5-5-5-5-5-5--3--3-3--1--1-1--------|

Repeat the verse again

Then the Chorus:

(WE COULD BE ANYWHERE!)

(Oh Navitron....)
 
    G               Bb      C            A
e|---------------------------------------------------------------------|
B|---------------------------------------------------------------------|
G|---------------------------------------------------------------------| X2
D|--5--5-5-5-5-5-5--8--8-8--10--10-10----7--7-7-7-7-7-7-7-7-7-7-7-7-7--|  
A|--5--5-5-5-5-5-5--8--8-8--10--10-10----7--7-7-7-7-7-7-7-7-7-7-7-7-7--|
E|--3--3-3-3-3-3-3--6--6-6--8---8--8-----5--5-5-5-5-5-5-5-5-5-5-5-5-5--|
 
       A
e|---------------------------|
B|---------------------------|
G|---------------------------|
D|--7--7--7--7--7--7--7--7---|
A|--7--7--7--7--7--7--7--7---|
E|--5--5--5--5--5--5--5--5---|

(the solo plays over this)

e|-------------------------------------------------------------------------|
B|-------------------------------------------------------------------------|
G|-------------------------------------------------------------------------|
D|-------------------------------------------------------------------------|x2
A|-5-5-5-5-3-3-3-3-----------------5-5-5-5-3-3-3-3-------------------------|
E|-----------------1-1-1-1-3-3-3-3-----------------1-1-1-1-3-3-3-3-5-5-5-5-|

(The Systems Doooowwwnnnn, System's Downnnn)

     Bb     A
e|--------------------------|
B|--------------------------|
G|--------------------------|
D|---8--8---7--7-7-7-7-7----|   x4
A|---8--8---7--7-7-7-7-7----|
E|---6--6---5--5-5-5-5-5----|

Then repeat the verse, and another chorus and then end on A


| /  slide up
| \  slide down
| h  hammer-on
| p  pull-off
| ~  vibrato
| +  harmonic
| x  Mute note
===============================================================================
Tap to rate this tab
# A B C D E F G H I J K L M N O P Q R S T U V W X Y Z