Song name
# A B C D E F G H I J K L M N O P Q R S T U V W X Y Z

Phenomenauts - Galactic Pioneers tab

www.phenomenauts.com
-------------------------------------------------------------------------------
			     Galactic Pioneers - Phenomenauts
-------------------------------------------------------------------------------
Tabbed by: Ryan Tally
Email: matrixrt@yahoo.com

Tuning:standard

   Intro
e|---------------------------------------------------------------------------|
B|---------------------------------------------------------------------------|
G|---------------------------------------------------------------------------|
D|---------------------------------------------------------------------------|
A|--0h7777-5555-4444-3333-22--22--222-3---2-0------/7-77-777-----------------|
E|--------------------------------------3-----3-2-0--------------------------|
  
  

   Verse
e|----------------------------------------0----------------------------------|
B|----------------------------------------0----------------------------------|
G|--9--7--6--5--4-44-444--5-----------1-1-1----------------------------------|X2
D|--9--7--6--5--4-44-444--5--5--7--9--2-2-2----------------------------------|
A|--7--5--4--3--2-22-222--3--5--7--9--2-2------------------------------------|
E|---------------------------3--5--7--0-0------------------------------------|

e|---------------------------------------------------------------------------|
B|---------------------------------------------------------------------------|
G|--1-----------1---1---------1---1--------1-------1-------------------------|
D|--2-----------2---2---------2---2--------2---5---2-------------------------|
A|--2-----------2---2---------2---2--------2---5---2-------------------------|
E|--0-----------0h3-0---------0h3-0--------0---3---0-------------------------|




  Chorus
e|-----------------5--5-5--5-5-5-5---7-7-7-77-77-7-7--7-7-7-77-77-7-7--------|
B|-----------------5--5-5--8-8-8-8---9-9-9-99-99-9-9--9-9-9-99-99-9-9--------|
G|----------6--6-6-6--6-6--6-6-6-6---9-9-9-99-99-9-9--7-7-7-77-77-7-7--------|
D|---7--7-7-7--7-7-5--5-5--5-5-5-5---9-9-9-99-99-9-9--9-9-9-99-99-9-9--------|
A|---7--7-7-7--7-7-7--7-7--7-7-7-7---7-7-7-77-77-7-7--7-7-7-77-77-7-7--------|
E|---5--5-5-5--5-5-5--5-5--5-5-5-5-------------------------------------------|

e|-----------------5--5-5--5-5-5-5-------------------------------------------|
B|-----------------5--5-5--5-5-5-5-4--4-4--5--5-5--4-2-4-5-4--4-4------------|
G|----------6--6-6-6--6-6--6-6-6-6-4--4-4--5--5-5--4-2-4-5-4--4-4------------|
D|---7--7-7-7--7-7-5--5-5--5-5-5-5-4--4-4--5--5-5--4-2-4-5-4--4-4------------|
A|---7--7-7-7--7-7-7--7-7--7-7-7-7-2--2-2--3--3-3--2-0-2-3-2--2-2------------|
E|---5--5-5-5--5-5-5--5-5--5-5-5-5-------------------------------------------|


Verse
 
Chorus

verse 

Chorus

Solo  
  



| /  slide up
| \  slide down
| h  hammer-on
| p  pull-off
| ~  vibrato
| +  harmonic
| x  Mute note
===============================================================================
Tap to rate this tab
 
# A B C D E F G H I J K L M N O P Q R S T U V W X Y Z