Song name
# A B C D E F G H I J K L M N O P Q R S T U V W X Y Z

Phenomenauts - Year 2000 tab

-------------------------------------------------------------------------------
			     The Year 2000 - Phenomenauts
-------------------------------------------------------------------------------
Tabbed by: Ryan Tally
Email: matrixrt@yahoo.com

Tuning:standard


  Intro
e|---------------------------------------------------------------------------|
B|---------------------------------------------------------------------------|
G|---------------------------------------------------------------------------|
D|--2-22-2222-22-2226-66-6666-66-6667-77-7777-77-7779------------------------|
A|--2-22-2222-22-2226-66-6666-66-6667-77-7777-77-7779------------------------|
E|--0-00-0000-00-0004-44-4444-44-4445-55-5555-55-5557------------------------|

  Guitar one
e|---------------------------------------------------------------------------|
B|----9---9-------------------7---7---7b9r7-7b9r7----------------------------|
G|----------9-9-9-8--6----------------------------9--9\----------------------|
D|-7/9---9-------------9----9----9-------------------------------------------|
A|----------------------------------------------------------2-2h4p2h4p2------|
E|----------------------------------------------------------------------4--0-|

  Guitar two
e|---------------------------------------------------------------------------|
B|---------------------------------------------------------------------------|
G|----------------------------------44-4-4-444-4-4-4-------------------------|
D|--22-2-2-222-2-2-266-6-6-666-6-6-644-4-4-444-4-4-42-2-2222-2-2-22222-------|
A|--22-2-2-222-2-2-266-6-6-666-6-6-622-2-2-222-2-2-22-2-2222-2-2-22222-------|
E|--00-0-0-000-0-0-044-4-4-444-4-4-4----------------0-0-0000-0-0-00000-------|




  Verse
   Guitar one
e|---------------4-4----7--7-7-----------------------------------------------|
B|--9--9-9----4--4--4---7--7--7---9------------------------------------------|
G|--9--9--9---5--5---5--8--8---8--9------------------------------------------|
D|--9--9---9--6--6------9--9------9------------------------------------------|X2
A|--7--7------6---------9--9------7------------------------------------------|
E|---------------------------------------------------------------------------|


  Guitar two
e|---------------------------------------------------------------------------|
B|---------------------------------------------------------------------------|
G|----------------------------------44-4-4-444-4-4-4-------------------------|
D|--22-2-2-222-2-2-266-6-6-666-6-6-644-4-4-444-4-4-42-2-2222-2-2-22222-------|
A|--22-2-2-222-2-2-266-6-6-666-6-6-622-2-2-222-2-2-22-2-2222-2-2-22222-------|
E|--00-0-0-000-0-0-044-4-4-444-4-4-4----------------0-0-0000-0-0-00000-------|

e|---------------------------------------------------------------------------|
B|---------------------------------------------------------------------------|
G|---------------------------------------------------------------------------|
D|---------------------------------------------------------------------------|
A|--2-2h4p2h4p2--------------------------------------------------------------|
E|-------------4--0----------------------------------------------------------|

e|---------------------------------------------------------------------------|
B|---------------------------------------------------------------------------|
G|----------------------------------44-4-4-444-4-4-4-------------------------|
D|--22-2-2-222-2-2-266-6-6-666-6-6-644-4-4-444-4-4-42-2-2222-2-2-22222-2-2-2-|
A|--22-2-2-222-2-2-266-6-6-666-6-6-622-2-2-222-2-2-22-2-2222-2-2-22222-2-2-2-|
E|--00-0-0-000-0-0-044-4-4-444-4-4-4----------------0-0-0000-0-0-00000-0-0-0-|

e|---------------------------------------------------------------------------|
B|---------------------------------------------------------------------------|
G|-4-4-4-4-------------------------------------------------------------------|
D|-4-4-4-4-------------------------------------------------------------------|
A|-2-2-2-2-------------------------------------------------------------------|
E|---------------------------------------------------------------------------|




  Chorus
e|---------------------------------------------------------------------------|
B|---------------------------------------------------------------------------|
G|---------------------------------------------------------------------------|
D|--2222222222222222666666666666666677777777777777779999999999999999---------|X2
A|--2222222222222222666666666666666677777777777777779999999999999999---------|
E|--0000000000000000444444444444444455555555555555557777777777777777---------|

e|---------------------------------------------------------------------------|
B|---------------------------------------------------------------------------|
G|---------------------------------------------------------------------------|
D|--2222222222222222666666666666666677777777777777779------------------------|
A|--2222222222222222666666666666666677777777777777779------------------------|
E|--0000000000000000444444444444444455555555555555557------------------------|
                                                    year 2000...




  Interlude
e|------------------------------------------------------------------------------|
B|-----------------9-99-99-9-99-99---------------9-99-99-9-99-787-77-77-7-77-77-|
G|--6-66-66-6-66-669-99-99-9-99-996-66-66-6-66-669-99-99-9-99-787-77-77-7-77-77-|
D|--7-77-77-7-77-779-99-99-9-99-997-77-77-7-77-779-99-99-9-99-787-77-77-7-77-77-|
A|--7-77-77-7-77-777-77-77-7-77-777-77-77-7-77-777-77-77-7-77-765-55-55-5-55-55-|
E|--5-55-55-5-55-55---------------5-55-55-5-55-55-------------------------------|
                                                              ...we reached the 

e|-------------------------------------------------------------------------------|
B|--------------------------------9-99-99-9-99-99---------------9-99-99-9-99-787-|
G|--2-22-22-2-22-226-66-66-6-66-669-99-99-9-99-996-66-66-6-66-669-99-99-9-99-787-|
D|--4-44-44-4-44-447-77-77-7-77-779-99-99-9-99-997-77-77-7-77-779-99-99-9-99-787-|
A|--4-44-44-4-44-447-77-77-7-77-777-77-77-7-77-777-77-77-7-77-777-77-77-7-77-765-|
E|--2-22-22-2-22-225-55-55-5-55-55---------------5-55-55-5-55-55-----------------|
    luner surface...

e|---------------------------------------------------------------------------|
B|-77-77-7-77-77---------------7-7-7-779-9-9-99------------------------------|
G|-77-77-7-77-772-22-22-2-22-227-7-7-779-9-9-996-6-66666---------------------|
D|-77-77-7-77-774-44-44-4-44-447-7-7-779-9-9-997-7-77777---------------------|
A|-55-55-5-55-554-44-44-4-44-445-5-5-557-7-7-777-7-77777---------------------|
E|--------------2-22-22-2-22-22----------------5-5-55555---------------------|




  Verse 2
e|---------------------------------------------------------------------------|
B|---------------------------------------------------------------------------|
G|----------------------------------44-4-4-444-4-4-4-------------------------|
D|--22-2-2-222-2-2-266-6-6-666-6-6-644-4-4-444-4-4-42-2-2222-2-2-22222-------|
A|--22-2-2-222-2-2-266-6-6-666-6-6-622-2-2-222-2-2-22-2-2222-2-2-22222-------|-
E|--00-0-0-000-0-0-044-4-4-444-4-4-4----------------0-0-0000-0-0-00000-------|  \
                                                                                 X2
e|---------------------------------------------------------------------------|  /
B|---------------------------------------------------------------------------|- 
G|---------------------------------------------------------------------------|
D|---------------------------------------------------------------------------|
A|--2-2h4p2h4p2--------------------------------------------------------------|
E|-------------4--0----------------------------------------------------------|

e|---------------------------------------------------------------------------|
B|---------------------------------------------------------------------------|
G|----------------------------------44-4-4-444-4-4-4-------------------------|
D|--22-2-2-222-2-2-266-6-6-666-6-6-644-4-4-444-4-4-42-2-2222-2-2-22222-2-2-2-|
A|--22-2-2-222-2-2-266-6-6-666-6-6-622-2-2-222-2-2-22-2-2222-2-2-22222-2-2-2-|
E|--00-0-0-000-0-0-044-4-4-444-4-4-4----------------0-0-0000-0-0-00000-0-0-0-|

e|---------------------------------------------------------------------------|
B|---------------------------------------------------------------------------|
G|-4-4-4-4-------------------------------------------------------------------|
D|-4-4-4-4-------------------------------------------------------------------|
A|-2-2-2-2-------------------------------------------------------------------|
E|---------------------------------------------------------------------------|



Chorus


  End
e|-0-------------------------------------------------------------------------|
B|-0-------------------------------------------------------------------------|
G|-1-------------------------------------------------------------------------|
D|-2-------------------------------------------------------------------------|
A|-2-------------------------------------------------------------------------|
E|-0-------------------------------------------------------------------------|



| r  release down to
| b  bend up to
| /  slide up
| \  slide down
| h  hammer-on
| p  pull-off
| ~  vibrato
| +  harmonic
| x  Mute note
===============================================================================
Tap to rate this tab
# A B C D E F G H I J K L M N O P Q R S T U V W X Y Z