Song name
# A B C D E F G H I J K L M N O P Q R S T U V W X Y Z

Phenomenauts - Tiny Robots tab

-------------------------------------------------------------------------------
			     Tiny Robots - The Phenomenauts!
-------------------------------------------------------------------------------
Tabbed by: Warm-and-fuzzy
Email: warmnfuzzy@gmail.com

Tuning: Standard

Intro:
e|-------------------|
B|-------------------|
G|----------7--------|
D|----------7--------| Repeat as necessary. Also used as Fill in someplaces.
A|-7h9--9---9--------|
E|-------------------|

Verse:
Guitar I:
e|--------------------------------------------------------------------------|
B|--------------------------------------------------------------------------|
G|--------------------------------------------------------------------------|
D|--0----0---2--4--0-----0--2--4--0------0-2--4-0----(Temolo Picking)--4-5-7|
A|-----0-------------2---------------2--------------------------------------|
E|---------------------2---------------3------------------------------------|
Verse:
Guitar II:
Chord Progression: 
     D Bm  Em  A
e|---2--2--7--5--|
B|---3--3--8--5--|
G|---2--4--9--6--|
D|---0--4--9--7--|
A|------2--7--7--|
E|------------5--|

"Say Hello..."
Chord Progression: G, F#m, Em, A
e|-3--2--0--0---------------------|
B|-0--2--0--2---------------------|
G|-0--2--0--2---------------------|
D|-0--4--2--2---------------------|
A|-2--4--2--0---------------------|
E|-3--2--0------------------------|

Back to Verse
then...

Pre-Chorus:
"If ya wanna rock and roll with me..."
Chord Progression: G, D, G, D, G, D, A 
e|--3--2----------0------|
B|--0--3----------2------|
G|--0--2----------2------|
D|--0--0-x3-Then--2--x8--|
A|--2-------------0------|
E|--3--------------------|

Chorus:
"Tiny Robots..."
Chord Progression: D, F#m, G, Gm - then A
e|-2-2-3-3-------------|
B|-3-2-3-3-------------|
G|-2-2-4-3-x4--Then A--|
D|-0-4-5-5-------------|
A|---4-5-5-------------|
E|---2-3-3-------------|

Play the Intro
then...
Solo:

e|---------------------------------------------------------------------|
B|---------------------------------------------------------------------|
G|---------------1/2-0---0-0-------------------------------------------|
D|-0---0--2-4-5-4------4-----4-2-0-----------------------0-2-4|--4-4-4-|
A|---0-----------------------------4-2-4-2-|Tremolo-0-2-4--------------|
E|---------------------------------------------------------------------|

e|-----------------------------------------------------------------|
B|-----------------------------------------------------------------|
G|-0-2-0---0----2/4--2-0---0---------------------------------------|
D|-------4---4-----------4----4-2-0-------------------------0-2-4|-|
A|----------------------------------4-2-4-2--|Tremolo-0-2-4--------|
E|-----------------------------------------------------------------|

Then, Pre-Chorus, Chorus
then...
Bridge:
Chord Progression: D,G,A
e|-2-3-0----|
B|-3-0-2----|
G|-2-0-2----|
D|-0-0-2----|
A|---2-0----|
E|---3------|

Then back to the "Say Hello..." part, then Verse, Pre-Chorus, Chorus

Ending Chord:
e|----|
B|----|
G|-7--|
D|-7--|
A|-9--|
E|----|

Closing Riff:
e|-------------|
B|--7-------7--|
G|----7-----7--|
D|------9---7--|
A|-------------|
E|-------------|


| /  slide up
| \  slide down
| h  hammer-on
| p  pull-off
| ~  vibrato
| +  harmonic
| x  Mute note
===============================================================================
Tap to rate this tab
 
# A B C D E F G H I J K L M N O P Q R S T U V W X Y Z