Song name
# A B C D E F G H I J K L M N O P Q R S T U V W X Y Z

Phideaux - Hellphone chords

Highlighted       Show chord diagrams
                                          Artist - Phideaux Xavier
                                         **************************
                                             Song - Hellphone 
                                            ******************
                                             Album - Fiendish 
                                            ******************
                                           Tabbed By - Ayreon77
                                          **********************



INTRO
******
 GUITAR 1 ACOUSTIC
  Em     Am    Em   Em     Am    Em  Em     Am    Em  Em     Am    Em
[---0-------0--0--|---0-------0--0-|---0-------0--0-|---0-------0--0-]
[-0---0--0--1--0--|-0---0--0--1--0-|-0---0--0--1--0-|-0---0--0--1--0-]
[-0------2--2--0--|--------2--2--0-|-0------2--2--0-|--------2--2--0-]
[-2------2--2--2--|--------2--2--2-|-2------2--2--2-|--------2--2--2-]
[-2------0--0--2--|--------0--0--2-|-2------0--0--2-|--------0--0--2-]
[--------------0--|--------------0-|--------------0-|--------------0-]
|
|GUITAR 2 ELECTRIC DISTORTED
[----------------------------------------------------|----------------------]
[----------------------------------h--2-------h------|--------h-------------]
[---------------------------------2-4---4-2--4-5-4-4-|-4-2-0-0-2--0------h--]
[----------------------------------------------------|--------------4-0-0-2-]
[----------------------------------------------------|----------------------]
[----------------------------------------------------|----------------------]


 GUITAR 1
  Em     Am    Em   D       G      Em         D       G      Em
[---0-------0--0--|---2---|---3---|---------|---2---|---3---|---------]
[-0---0--0--1--0--|-3---3-|-----3-|---------|-3---3-|-----3-|---------]
[-0------2--2--0--|-2-----|-0-----|-0-----0-|-2-----|-0-----|-0-----0-]
[-2------2--2--2--|-0-----|-0-----|-2-2-2-2-|-0-----|-0-----|-2-2-2-2-]
[-2------0--0--2--|-------|-------|-2-2-2-2-|-------|-------|-2-2-2-2-]
[--------------0--|-------|-------|-0-------|-------|-------|-0-------]
|
|GUITAR 2 ELECTRIC
[-----------------|-------------------------------------------------------]
[-----s-----h-----|-------------------------------------------------------]
[--0-2\4-2-4-5-2-4|--------s-----------------------------------h----------]
[2----------------|-7-5-4-5\7-5-4-5-4-2--4-5-7-4-5-7-5-4-0-2--2-4-5-4-2-2-]
[-----------------|-------------------------------------------------------]
[-----------------|-------------------------------------------------------]


VERSE 1
********
Em          Am                   Em
Talk to the wind that passes you by
                   Am                     Em
There's work to be done while your carpet rides
               A               Em
Pressed to the ear  eyes wide blind
D      G    Em
On the Hell phone
D      G    Em
On the Hell phone


VERSE 2
********
Em       Am                    Em
Wireless snakes are luring you in
           Am             Em
Step right up  let Babel begin
          A                        Em
When they call for you just let it ring
D      G    Em
On the Hell phone
D       G    Em
 On the Hell phone


BRIDGE
*******
       Am    Em         Am     Em
Do you hear      Anyone here
              Am
The signal is clear
Em
Near

D G Em
  Ohhhhh
D G Em
    Ohhhhh

CHORUS
*******
    D           G    Em
The call of the Hell phone
      D          G    Em
We're all on the Hell phone
    D           G    Em
The call of the Hell phone
      D      G      Em
We're on the Hell phone



ENJOY......
Tap to rate this tab
# A B C D E F G H I J K L M N O P Q R S T U V W X Y Z