Song name
# A B C D E F G H I J K L M N O P Q R S T U V W X Y Z

Phil Collins - Another Day In Paradise chords

Highlighted       Show chord diagrams
Intro Part:

e|---------------------------------------------------------------------------|
B|---------------------------------------------------------------------------|
G|--------7----7-9-7---6---------------7----7-9-7---6------------------------|
D|-----------------------9-7-9------------------------9-7-5------------------|
A|---------------------------------------------------------------------------|
E|---------------------------------------------------------------------------|
Twice.

Bm7                     A          Em7
She calls out to the man on the street.
Bm7           A
Sir, can you help me?
Bm7                 A           Em7
It's cold and I've nowhere to sleep.
Bm7                         A
Is there somewhere you can tell me?
Bm7           A            Em7
He walks on, doesn't look back.
Bm7                   A
He pretends he can't hear her.
Bm7                      A             Em7
Starts to whistle as he crosses the street.
Bm7                      A
Seems embarrased to be there.

B5          A5
Oh, think twice.
              G5                           A5
'Cause it's another day for you and me in paradise.
B5          A5
Oh, think twice.
              G5
'Cause it's another day for you.
A5      B5    A5  G5 E5
You and me in par-adise.

e|---------------------------------------------------------------------------|
B|---------------------------------------------------------------------------|
G|--------7----7-9-7---6---------------7----7-9-7---6------------------------|
D|-----------------------9-7-9------------------------9-7-5------------------|
A|---------------------------------------------------------------------------|
E|---------------------------------------------------------------------------|
Twice.

She calls out to the man on the street.
He can see she's been crying.
She's got blisters on the soles of her feet.
She can't walk, but she's trying.

Oh, think twice.
'Cause it's another day for you and me in paradise.
Oh, think twice.
'Cause it's another day for you, you and me in paradise.

--Intropart--

Bridge:
C#  Bm7
Oh lord.
         A                  D
Is there nothing more anybody can do?
C#  Bm7
Oh lord.
              A                  D     A
There must be something you can say.

You can tell from the lines on her face.
You can see that she's been there.
Probably been moved on from every place.
'Cause she didn't fit in there.

Oh, think twice.
'Cause it's another day for you and me in paradise.
Oh, think twice.
'Cause it's another day for you, you and me in paradise.

e|---------------------------------------------------------------------------|
B|---------------------------------------------------------------------------|
G|--------7----7-9-7---6---------------7----7-9-7---6------------------------|
D|-----------------------9-7-9------------------------9-7-5------------------|
A|---------------------------------------------------------------------------|
E|---------------------------------------------------------------------------|
Twice.

Outro:
Em7         Bm7            A      Em7    Bm7       A
It's just another day for you and me in paradise
Em7         Bm7            A      Em7    Bm7
It's just another day for you and me in paradise.
Tap to rate this tab
 
# A B C D E F G H I J K L M N O P Q R S T U V W X Y Z