Song name
# A B C D E F G H I J K L M N O P Q R S T U V W X Y Z

Phil Collins - Easy Lover tab

Hi this is my version of the Easy Lover solo
ive pretty much worked all this out myself theres one bit near the end where ive 
slitly changed it i actully add notes lol

heres a vid of me playing it so you can here how it goes :)
http://www.youtube.com/watch?v=7b0nqVvKc70

Hope that helps you 

il try and break it down in to sections so its easier to learn
Here goes-

Standard tuning

section 1

bar fret 13 with your first finger
|-----------------------------------------11-----8-----------|
|--13131313------9--11------9-11~--9----9----11-------9------|
|--13131313--/10--------/10----------10------------10--------|
|--13131313--------------------------------------------------|
|--------------------------------------------------------8\--|
|------------------------------------------------------------|

section 2

|------------------------------------------------------------|
|--13x13x13--------------------------------------------------|
|--13x13x13--------------------------------------------------|
|--13x13x13-----6-8-8b9r8-6---6------------------------------|
|------------/8-------------8---8----------------------------|
|------------------------------------------------------------|

section 3

bar fret 13 with you first finger and pop your pinky on the 16th
fret on the B string.
|----------------------------------11b13---------------------|
|--13x13x16------9-11-11~---9----9---------------------------|
|--13x13x13--/10--------------10-----------------------------|
|--13x13x13--------------------------------------------------|
|------------------------------------------------------------|
|------------------------------------------------------------|

section 4

|--11p8----8--------------------------------------------------------|
|-------11---11b13-11-9----9-11-11b12r11p9--------------------------|
|-----------------------10-----------------10-10b11r10p8------------|
|--------------------------------------------------------10-8-10-8--|
|-------------------------------------------------------------------|
|-------------------------------------------------------------------|

section 5

|--------------------------------------------------------------|
|--------------------------8-9-8-11-8-11/13-11-13-14-13-14-16--|
|---------------------8-10-------------------------------------|
|----------------8-10------------------------------------------|
|--11-10-8h10h11-----------------------------------------------|
|--------------------------------------------------------------|

section 6

|--------------------------13-----------------------------|
|--16-13-16-16b18-16-16b18----16-13-----------------------|
|-----------------------------------15-15b17r15p13----13--|
|--------------------------------------------------15-----|
|---------------------------------------------------------|
|---------------------------------------------------------|

|-----------16----13-13-1313-16/18-18b20-18b20-18b20-18b20-20~--|
|--------------16-----------------------------------------------|
|--------13-----------------------------------------------------|
|--13h15--------------------------------------------------------|
|---------------------------------------------------------------|
|---------------------------------------------------------------|


hope this helps you :)

rate! and all comments welcome
Tap to rate this tab
# A B C D E F G H I J K L M N O P Q R S T U V W X Y Z