Song name
# A B C D E F G H I J K L M N O P Q R S T U V W X Y Z

Phil Collins - Groovy Kind Of Love tab

--------7---9--------------------------9----7-|
----9-----------------------------------------|
----------------------------------------------|
----------------------------------------------|
----------------------------------------------|


-----------------7---9s11---------7------7--8---10----12----|
----------7---9-----------------------9---------------------|
----9-------------------------------------------------------|
------------------------------------------------------------|
------------------------------------------------------------|
------------------------------------------------------------|

-----------------7---9s11------7-------7h9----7-------------|
----------7---9---------------------9-----------------------|
----9-------------------------------------------------------|
------------------------------------------------------------|
------------------------------------------------------------|
------------------------------------------------------------|
Tap to rate this tab
# A B C D E F G H I J K L M N O P Q R S T U V W X Y Z