Song name
# A B C D E F G H I J K L M N O P Q R S T U V W X Y Z

Phil Coulter - Irelands Call tab

So this is a tab for Irelands call, (the second song they sing at the rugby games)
this is completely done by ear, so i hope you enjoy this and think its
right :)

Tuning : EADGBe
  /    :  Slide
Tabbed by brands99


  (Come the day)          (come the power..)   (we have come to answer...)
E-------------------|------------------------------------------------|
A--5--7/9---------9-|--5--7/9-9------------------------------------5-|
D---------7--9-77---|-----------12-11-9-7--7--9/12--9--7/12--9-7-9---|
G-------------------|------------------------------------------------|
B-------------------|------------------------------------------------|
e-------------------|------------------------------------------------|

(4 proud provinces...)   (IRELAND, IRELAND, together...)
E----------------------|---------------------------------|
A--5-7/9----9-9-7-5----|---------------------------9--7--|
D-------9-7------------|---/7--0--/12-9---77/12--7-------|
G----------------------|---------------------------------|
B----------------------|---------------------------------|
e----------------------|---------------------------------|

(to shoulder, we'll answer Ireland's call)
E-----------------------------------------|
A-----------------------------------------|
D--/7-0--/1212-9-7---77/12--14--1212------|
G-----------------------------------------|
B-----------------------------------------|
e-----------------------------------------|

Now the rest of the song goes the same way as the above. Hope this helped! please
like this if it helped.

Tabbed by brands99
Tap to rate this tab
# A B C D E F G H I J K L M N O P Q R S T U V W X Y Z