Song name
# A B C D E F G H I J K L M N O P Q R S T U V W X Y Z

Phil Coulter - Irelands Call tab

So this is a tab of Irelands Call, originally composed by Phil Coulter, tabbed this by 
ear, sounds right to me, enjoy...

Tuning : EADGBe
/ = slide


E-------------------------------------|
A--5--7--9-----------5-7-99-----------|
D----------7--9--77-------------9--7--|
G---------------------------7-6-------|
B-------------------------------------|
e-------------------------------------|


E--------------------------------------------------|
A-------------------------5---555---------99--7--5-|
D--7-9-12-11--9--12-9-7-9---------7/9--7-----------|
G--------------------------------------------------|
B--------------------------------------------------|
e--------------------------------------------------|


E----------------------------------------------------------------------|
A---------------------------9--7---------------------------------------|
D--/7-0--/12--9--77-9/12--7---------/7-0--/12-99-7--77/12--/14--12-12--|
G----------------------------------------------------------------------|
B----------------------------------------------------------------------|
e----------------------------------------------------------------------|
Tap to rate this tab
# A B C D E F G H I J K L M N O P Q R S T U V W X Y Z