Song name
# A B C D E F G H I J K L M N O P Q R S T U V W X Y Z

Phil Keaggy - Castles Call tab

Author/Artist: Phil Keaggy
Title: The Castle's Call
Album: The Master and The Musician

First time:
-------7--5-7-4-0--2-3p2-0---0-2-4p2-0-----0------0-------------------------|
---------------------------2------------3----0--3---0-----------------------|
----------------------------------------------------------------------------|
----------------------------------------------------------------------------|
----------------------------------------------------------------------------|
-0--------------------------------------------------------------------------|


Next two times:

-------7--5-7-4-0--2-3p2-0---0-2-4-2-0-----0------0-------------------------|
---------------------------2------------3----0--3---0-----------------------|
-------9--7---5----4-------3---2---1----2----1--2---1-----------------------|
----------------------------------------3----2--3---2-----------------------|
----------------------------------------------------------------------------|
-0--------------------------------------------------------------------------|


End run:
------------*---------------------------------------------------------------|
----0-------*----0----------------------------------------------------------|
---1--3---1-*---1--3---1----------------------------------------------------|
--2---------*--2-----------2------------------------------------------------|
-2----------*-2----------------2--------------------------------------------|
------------*---------------------------------------------------------------|


The low E at the beginning of the first two sections should be struck well
and let to sound throughout the section.

The end run is nothing but a regular E chord and you pick up the extra
note with your pinky.  The * represents the accompanying flute playing
the same line.
Tap to rate this tab
# A B C D E F G H I J K L M N O P Q R S T U V W X Y Z