Song name
# A B C D E F G H I J K L M N O P Q R S T U V W X Y Z

Phil Keaggy - Rise Up O Men Of God tab

Help us improve GuitareTab! Take a short survey!
Rise Up, O Men of God
---------------------
Phil Keaggy


Tuning: Standard/No Capo (EADGBE)
Use 12-string for extra fullness

Intro:

6th string - save for emphasis
1st/2nd strings - strum, let ring, but deemphasize

      Eno3...
O E----------|--|
O B----------|--|
  G---9------|--|
  D---9------|--|
  A---7------|--|
X E----------|--|


      G6   F#11 D13 Bsus4    Eno3
O E-----------------------|-------|
O B-----------------------|-------|
  G---12---11---7---4-----|--9----|  (repeat)
  D---12---11---7---4-----|--9----|
  A---10---9----5---2-----|--7----|
X E-----------------------|-------|


      A9   G6  F#11  G6   A9   F#11 D13
O E------------------------------------|
O B------------------------------------|
  G---14---12---11-/-12-/-14---11---7--|
  D---14---12---11-/-12-/-14---11---7--|
  A---12---10---9--/-10-/-12---9----5--|
X E------------------------------------|


    Bsus4 CM7 D13 Eno3 A9 Bsus4  Eno3
O E----------------------------|------|
O B----------------------------|------|
  G---4---5-/-7---9----2---4---|---9--|
  D---4---5-/-7---9----2---4---|---9--|
  A---2---3-/-5---7----0---2---|---7--|
X E----------------------------|------|
                           ^
                         (5 beats)

Verses:

    Eno3  D13    Eno3
Rise up O Men of God
      Em        D      Am      (normal chords)
Have done with lesser things
      G         D        Bm        C/G     (normal chords)
Give heart and soul and mind and strength
    Eno3      D13     CM7
To serve the King of Kings
    Eno3      D13     Eno3
To serve the King of Kings

etc.

Solo Jam:

      G6   Eno3 F#11 D13 Eno3
O E---------------------------|
O B---------------------------|
  G---12---9----11---7---9----|
  D---12---9----11---7---9----|
  A---10---7----9----5---7----|
X E---------------------------|


      A9   G6  F#11  G6   A9  F#11 D13  Eno3
O E-------------------------------------------|
O B-------------------------------------------|
  G---14---12---11-/-12-/-14---11--7----9-----|
  D---14---12---11-/-12-/-14---11--7----9-----|
  A---12---10---9--/-10-/-12---9---5----7-----|
X E-------------------------------------------|


    Bsus4 CM7 D13 Eno3 F#11 D13  Eno3
O E----------------------------------|
O B----------------------------------|
  G---4---5-/-7---9--/-11---7----9---|
  D---4---5-/-7---9--/-11---7----9---|
  A---2---3-/-5---7--/-9----5----7---|
X E----------------------------------|

Ending:

      CM7  D13  Eadd2
O E---------------------------|
O B---------------------------|
  G---5----7----1-------------|
  D---5----7----4-------------|
  A---3----5----2-------------|
X E---------------------------|
Related for Rise Up O Men Of God tab