Song name
# A B C D E F G H I J K L M N O P Q R S T U V W X Y Z

Phil Keaggy - Things I Will Do chords

Highlighted       Show chord diagrams
Phil Keaggy, Things I will Do, from the Love Broke Through album
Released October, 1976

I originally learned this song from his now long out-of-print "The Phil Keaggy 
Songbook." I've since lost that song book (ARRRGGGHH!)
I tabbed this from my memory, and have played against the record/CD.  I think it sounds 
pretty close.

You can find the tabs for some of the less common chords at the bottom.


INTRO

                               Am7    A7
e:--0h2--3-2p0-------------------0----0--|
B:--3---------3---------------1---1---2--|
G:-----2-------2-0-2--0-------0-0--0--0--|
D:--0-----------4------------------------|
A:------------------3--2p0----0-------0--|
E:------------------------3--------------|


     D                Am7      G
Last night I asked my heavenly Father

 Bm       D            Am7     G
About the way I should go.

Bm      D             F G      Am     Em
I said "Lord, I can't see Your path before me.

Bm        F#m          Am
All I can see is rocky road.

           D
So take me through."

       Am7               G               D
And He spoke to me these words of simple truth.

     D Dmaj9(no 3) D    G   F#m Em    Bm     A               D
"And I            will lead the blind by the way they do not know,

   D Dmaj9(no 3) D   G  F#m Em   Bm     Asus4       A
In paths        they do not know I will guide them.

e:-----3----6---9----12--2--2-------2---|
B:-----2----5---8----11--3--3-------0---|
G:-----3----6---9----12--4--4-------1---|
D:-----2----5---8----11--4--4-------0---|
A:-----------------------2--0-----------|
E:--------------------------------------|
I will make darkness in to light  before them


G     F#m           G Bdim7 A     Asus4 A
  And rugged places into    plains.

CHORUS

              D             G/D        Dmaj7      G/D
These are the things I will do, I will do, I will do

           D              Am7 G/B  A    Asus4 A
And I will not leave them un-      done.

              D             G/D        F#         Bm Bm/A Gmaj7
These are the things I will do, I will do, I will do

           F#m G          E/G# A
And I will not leave them un-

e:--2----3-2p0-------------------0----0--|
B:--3---------3---------------1---1---2--|
G:--2--2-------2-0-2--0-------0-0--0--0--|
D:--0-----------4------------------------|
A:------------------3--2p0----0-------0--|
E:------------------------3--------------|
   done.


D G/D D                Am7       G
Well  I'm only one, of countless thousands

         Bm       D            Am7   G
Who have walked upon pilgrim's way.

    Bm  D      F  G
And whenever I thirst,

     Am           Em
I'll seek my Lord first

    Bm        F#m          Am
And listen to what He will say.

             D                Am7
Lord, let me hear You, and He spoke to me

      G               D
These words of simple truth,

  D    Dmaj9(no 3) D    G   F#m      Em
Behold I           will do something new,

Bm     A           D
Now it will spring forth,

    D   Dmaj9(no 3) D   G  F#m Em   Bm Asus4  A
And you will        not be a-  ware of it.

e:-----3--6---9--12-|
B:-----2--5---8--11-|
G:-----3--6---9--12-|
D:-----2--5---8--11-|
A:------------------|
E:------------------|
I will even make a

Bm      Bm/A   Bm6/D      G
roadway in the wilderness,

    F#m           G Bdim7 A Asus4 A
And rivers in the de-     sert.


CHORUS

              D             G/D        Dmaj7      G/D
These are the things I will do, I will do, I will do

           D              Am7 G/B  A Asus4 A
And I will not leave them undone.

              D             G/D        F#         Bm Bm/A Gmaj7
These are the things I will do, I will do, I will do

           F#m G          E/G# A D
And I will not leave them un-    done.

Bm    A      F#m G          E/G# A
  And I will not leave them un-

e:--2----3-2p0---------------2|
B:--3---------3--------------3|
G:--2--2-------2-0-2--0------2|
D:--0-----------4------------0|
A:------------------3--2p0----|
E:------------------------3---|
   done.


CHORDS
-----------
Dmaj9(no 3) xx0220
Asus4       x02230
Bdim7       xx3434
Bm6/D       xx0102
Tap to rate this tab
# A B C D E F G H I J K L M N O P Q R S T U V W X Y Z