Song name
# A B C D E F G H I J K L M N O P Q R S T U V W X Y Z

Phil Keaggy - Spend My Life With You tab

Artist: Phil Keaggy
Song: Just A Moment Away
Album: Ph'lip Side
Released: August 1980

This tab does not include the last instrumental jamming session part heard on the record.

[INTRO]
   D
e:-----0---|-----0---|-----0---|-----0---|
B:-2h3-----|-2h3-----|-2h3-----|-2h3-----|
G:----2-2--|----2-2--|----2-2--|----2-2--|
D:-0-----0-|-0-----0-|-0-----0-|-0-----0-| ( X 2)
A:---------|---------|---------|---------|
E:---------|---------|---------|---------|


[VERSE]
   D
e:-----0---|-----0---|-----0---|-----0---|
B:-2h3-----|-2h3-----|-2h3-----|-2h3-----|
G:----2-2--|----2-2--|----2-2--|----2-2--|
D:-0-----0-|-0-----0-|-0-----0-|-0-----0-|
A:---------|---------|---------|---------|
E:---------|---------|---------|---------|
1. Lay  me   down  to  rest,
2. Sleep come over     me,
3. See  you  when  I   rise,
4. Shine Your light on me,
5. In your   presence  Lord,

   Cmaj7         Bm7            Asus2
e:------0------|--------------|-----------|-----------|
B:-0------0----|-------3------|------0----|------0----|
G:----0-----0--|---2-----2----|-1h2----2--|-1h2----2--|
D:-------------|-----4-----4--|----2----2-|----2----2-|
A:-3-----------|---2----------|-0---------|-0---------|
E:-------------|--------------|-----------|-----------|
1. Sing me  a      sweet lulla- by,
2. Can't keep from closing my   eyes.
3. Morning will  bring me your  song
4. Wash   me in  resplendent    love.
5. there I will  be satis-      fied,


   G           G/F
1. When will I see you a-
3. Over  and   over a-
5. Over  and   over a-

   D
e:-----0---|-----0---|-----0---|-----0---|
B:-2h3-----|-2h3-----|-2h3-----|-2h3-----|
G:----2-2--|----2-2--|----2-2--|----2-2--|
D:-0-----0-|-0-----0-|-0-----0-|-0-----0-|
A:---------|---------|---------|---------|
E:---------|---------|---------|---------|
1. gain? (GO TO VERSE 2)
3. gain. (GO TO VERSE 4)
5. gain. (GO TO CODA )


   G           D/F#       G/F          C/E  D7/F#        G          E/G#
2. The day is  gone, but  you'll carry on,  Watching, protecting me into the
4. There is no shame with You as my    aim. Yesterday,   today,  forever the

   D
e:-----0---|-----0---|-----0---|-----0---|
B:-2h3-----|-2h3-----|-2h3-----|-2h3-----|
G:----2-2--|----2-2--|----2-2--|----2-2--|
D:-0-----0-|-0-----0-|-0-----0-|-0-----0-|
A:---------|---------|---------|---------|
E:---------|---------|---------|---------|
2. dawn.
4. same.

          A7sus4                          D
e:--------------0-----|---------0-------|------0-----|------0-----|
B:--------3-------3---|-3---------3-----|-2h3--------|-2h3--------|
G:-----------0------0-|------0-------0--|-----2--2---|-----2--2---|
D:--------------------|-----------------|-0--------0-|-0--------0-|
A:--------0-----------|-0---------------|------------|------------|
E:--------------------|-----------------|------------|------------|
2. Then another day to  spend my life with you.
4. And I  only want to  spend my life with you.


e:---------------------|
B:-----------------3---|
G:-------------4p2-2---| GUITAR 1
D:---------2p0-----0---|
A:-----2p0-------------|
E:-2p0-----------------|

e:-------------7P5-10--|
B:---------5P3-----7---|
G:-----4P2---------7---| GUITAR 2
D:-4P2-------------7---|
A:---------------------|
E:---------------------|


[CHORUS]
                A7sus4     Dmaj7
Cause there's a home in my heart
        A7sus4
And I believe the day is coming
           G         A
When we'll never be apart.
        A7sus4       Dmaj7
Just to be where you are,
G               Bm7
And to spend my life with you
      Em             A7sus4 A
Would be a perfect start.

e:------------------10-^10--v10--------------|
B:-----------10---7----^7---v7---------------|
G:-------6-7----9------^7---v7---------------| (GO TO VERSE)
D:-----9---------------^7---v7---------------| 
A:-9-7--------------------------0---0-0------|
E:-------------------------------------------|
Notations:
^ strum downward
v strum upward


[CODA ]
   D
e:-----0---|-----0---|-----0---|-----0---|
B:-2h3-----|-2h3-----|-2h3-----|-2h3-----|
G:----2-2--|----2-2--|----2-2--|----2-2--|
D:-0-----0-|-0-----0-|-0-----0-|-0-----0-| REPEAT & FADE
A:---------|---------|---------|---------|
E:---------|---------|---------|---------|


================================
CHORDS
Asus2     X02200
A7sus4    X02030
Tap to rate this tab
# A B C D E F G H I J K L M N O P Q R S T U V W X Y Z