Song name
# A B C D E F G H I J K L M N O P Q R S T U V W X Y Z

Phil Keaggy - Just A Moment Away chords

Highlighted       Show chord diagrams
Artist: Phil Keaggy
Song: Just A Moment Away
Album: Ph'lip Side
Released: August 1980

--[INTRO]--

e:------------------------------------------------------------|
B:------------------------------------------------------------|
G:----------------0-2-5-2-0---2p0------------------0-2-5-2-0--|
D:------------0-2-----------------2--0----------0-2-----------|
A:-------0--3--------------------------3p0---0----------------|
E:\0-3-4-----------------------------------3------------------|

e:--------------|
B:0h1--0--------|
G:--------2--0--|
D:0h2--0--------|
A:--------3--2--|
E:--------------|


--[VERSE 1]--

Am7
He's just a moment away,

          Dm7         Am7        G           D/F#
If you're looking for help, just call on His name.

Am7
You'll have to open the door

    Dm7          Am7    Bm7      Eaug
And He will come in, no He won't delay.

        Am Am/G# Am/G
What He said 

   Bm7    Eaug
is faithful, 

      Am Am/G# Am/G
every word 

         Bm7 C#m7
is true.



--[CHORUS]--

F#m      E     D                 E
Just a moment away, (guitar lick 1)

F#m        E       D                  E
if you ask He will stay, (guitar lick 1)

F#m     E    D           C#m7
Again I say, call on His name,

       Bm7        C#m7         F#m
If you do, you're life will be changed.



--[VERSE 2]--

Am7
Just like the air that you breathe,

      Dm7          Am7          G            D/F#
He'll restore your life, though this life is brief.

Am7
Don't leave this moment behind,

         Dm7       Am7
Tomorrow may never come

        Bm7      Eaug
And you didn't believe

        Am Am/G# Am/G
What He said

   Bm7     Eaug
is faithful,

      Am Am/G# Am/G
every word

        Bm7 C#m7
is true.


[GO TO CHORUS]


--[BRIDGE]--

F#m     E

D          E               F#m   E       D  C#m7
Why do the things that you don't want to do

     Bm7 C#m7   F#m      F#m E
When you can be changed?

  D            E           F#m
A need for His love He has built

E       D  C#m7 Bm7    C#m7
Right into your heart.

     Gsus4  G
Your heart.


--[GUITAR SOLO]--

  Am7                                 Dm7          Am7      G        D/F#
e:5h8-8p5---5-8-|-5h8-8p5--5---------|10b12-10p8--|-------|---------|-------------|
B:-------5-8----|--------5--8-5------|----------10|-------|---------|-------------|
G:--------------|-----------------5--|------------|5------|---------|-----5------5|
D:--------------|------------------7-|------------|--7p5--|---------|---5--7p5h7--|
A:--------------|--------------------|------------|-----7-|-5-3-5-3-|5/7-7--------|
E:--------------|--------------------|------------|-------|---------|-------------|

Am7     Dm7     Am7     Bm7     Eaug
/**  2nd part of guitar solo still work in progress, but chords are shown  **/


--[VERSE 3]--

Am7
Are you a dying soul?

Dm7         Am7           G          D/F#
Others have died saying, "I'm in control."

Am7
Instead pray now, "Lord I believe,

       Dm7       Am7            Bm7        Eaug
Let me into Your heart, take me out of the cold."

         Am Am/G# Am/G
What You said

    Bm7     Eaug
is faithful,

      Am Am/G# Am/G
every word

        Bm7 C#m7
is true.



[GO TO CHORUS]


--[ENDING]--
F#m    E    D

       E      F#m    F#m E D
Just a moment away

       E      F#m    F#m E D
Just a moment away

*REPEAT & FADE OUT* 


=======================
CHORDS

Eaug      0x2110
Gsus4     355533


GUITAR LICK 1
e:-------------|
B:-------------|
G:----2--------|
D:-2/4--2/4-2--|
A:-------------|
E:-------------|
Tap to rate this tab
# A B C D E F G H I J K L M N O P Q R S T U V W X Y Z