Song name
# A B C D E F G H I J K L M N O P Q R S T U V W X Y Z

Phil Ochs - Changes tab

Capo on I

 G               A7
|-3----0--------|----------0----|
|----------3----|-2----3--------|
|----0-------0--|----0-------0--|
|---------------|---------------|
|---------------|-0------0------|
|-3------3------|---------------|


  D               Em              G
|-2--------2----|------0--------|-3----0--------|
|------3--------|-0--------0----|----------3----|
|----2-------2--|----0-------0--|----0-------0--|
|-0------0------|---------------|---------------|
|---------------|---------------|---------------|
|---------------|-0------0------|-3------3------|


  A7              F#m             G
|----------0----|-2--------2----|-7--5--3--2--|-3--------3----|
|-2----3--------|------2--------|-------------|------0--------|
|----0-------0--|----2-------2--|----0-----0--|----0-------0--|
|---------------|---------------|-0-----0-----|--------0------|
|-0------0------|---------------|-------------|---------------|
|---------------|-2------2------|-------------|-0-------------|


  A7            D               Em
|-5--3--2--0--|-2--------2----|------0----------|
|-------------|------3--------|-0--------3------|
|----0-----0--|----2-------2--|----0-------0----|
|-------------|-0------0------|-----------------|
|-0-----0-----|---------------|-----------------|
|-------------|---------------|-0------0--------|


  A7              D                              
|----------0----|-0--------0-----|-0------------|
|-2----3--------|------3-------3-|------3-------|
|----0-------0--|----2-------2---|----2------2--|
|---------------|-0------0-------|-0------0-----|
|-0------0------|----------------|--------------|
|---------------|----------------|--------------|
Tap to rate this tab
# A B C D E F G H I J K L M N O P Q R S T U V W X Y Z