Phil Selway - By Some Miracle tab

Intro

e/------------------------------------|
b/------9------8-------3--------------|
g/-----10------8-------3--------------|
d/-----10------8-------3--------------|   X2
a/-8--------6-------5-----5-5---6-----|
e/------------------------------------|

Verse

e/------------------------------------|
b/------9------8-------3--------------|
g/-----10------8-------3--------------|
d/-----10------8-------3--------------|   X4
a/-8--------6-------5-----5-5---6-----|
e/------------------------------------|

e/-----------------------------|
b/------9------8--------9------|
g/-----10------8-------10------|
d/-----10------8-------10------|
a/-8--------6-----------8------|
e/-----------------------------|

Chorus

e/-----------4---4----------------------|
b/--9----8---4---4---6---6----8-----8---|
g/-10----8---5---5---6---6----8-----8---|
d/-10----8---6---6---6---6----8----10---|   X2
a/--8----6---6---6---8---8---10----10---|
e/-----------4---4---6---6----8-----8---|

Post Chorus

e/-------------------------------------------------------------------|
b/----------9-----------------9---------------8--------------6-------|
g/---------10----------------10---------------9--------------6-------|
d/----10-------10--------10-------10------10-----10------6--------6--|   X2
a/-8-----------------7-----------------7--------------4--------------|
e/-------------------------------------------------------------------|

Outro

e/---5---6---6--8--5---|
b/---6---6---6-----6---|
g/---7---7---6-----5---|
d/---7---8---8-----7---|
a/---5---8---8-----8---|
e/-------6---6---------|

Great song great album, any questions don't hesitate to ask! (:
Tap to rate this tab
 
# A B C D E F G H I J K L M N O P Q R S T U V W X Y Z