Phil Selway - Beyond Reason tab

Qué tranza. Es algo sencilla ¿vez? pero te traerá satisfacción, ya que en lo personal, 
para mí es la mejor canción del álbum. Puedes tocarla como acordes o como arpegios, tú 
eliges, si encuentras mejoras, comparte carnal. Chido.

Inicio (también se repite como a la mitad)

E --5-3-5-3-0--3-0-0-1-0-|
B -----------------------|
G -----------------------|
D -----------------------|
A -----------------------|
e -----------------------|

Versos (básicamente es toda la canción)

E -x----x----x----x----x----x----x----x----x----x-|
B -6----6----5----3----6----6----5----3----3----3-|
G -7----6----5----4----7----6----5----4----3----4-|
D -7----6----5----4----7----6----5----4----3----4-|
A -5----4----3----2----5----4----3----2----1----2-|
e -x----x----x----x----x----x----x----x----x----x-|


Y luego está ésta parte, creo que es el solo. Se repite 2 veces.

E -x----x----x----6----x-----|
B -6----6----5----x----6-----|
G -7----6----5----7----7-----|
D -7----6----5----7----7-----|
A -5----4----3----5----5-----|
e -x----x----x----x----x-----|

Terminas con esto

E -x-                  E -1-|
B -6-                  B -3-|
G -7-   O bien esto    G -2-|
D -7-                  D -0-|
A -5-                  A -x-|
e -x-                  e -x-|
Tap to rate this tab
 
# A B C D E F G H I J K L M N O P Q R S T U V W X Y Z