Song name
# A B C D E F G H I J K L M N O P Q R S T U V W X Y Z

Phil Spector - To Know Her Is To Love Her tab

----------------------------------------------------------------------------
	       To Know Her Is to Love Her - David Bromberg
----------------------------------------------------------------------------
Tabbed by:metalhead9000

Tuning:EADGBe

e|-------------------------------------------------------------------------|
B|-------5-5-5-5-5/3-1-3/5-3---3-3-3/1-0---------1---1-1p0-------1---1-1p0-|
G|-------------------------------------------------2-------2-------2-------|
D|---3/5---------5/3-2-3/5-3-------3/2-0-----------------------------------|
A|-----------------------------------------------0-------------------------|
E|---------------------------------------3-4-5---------------0-1-1---------|

e|-------------------------------------------------------------------------|
B|-------1-1/5-5---5---5/3-1-3/5-3-3---3---3/1-0-1/3-1---------------------|
G|--2--2-------------------------------------------------------------------|
D|----------/5---5---5-5/3-2-3/5-3---3---3-3/2-0-2/3-2---------------------|
A|-------------------------------------------------------------------------|
E|-------------------------------------------------------------------------|

| /  slide up
| \  slide down
| h  hammer-on
| p  pull-off
| ~  vibrato
| +  harmonic
| x  Mute note

http://www.davidbromberg.net/home.html

============================================================================
Tap to rate this tab
 
# A B C D E F G H I J K L M N O P Q R S T U V W X Y Z