Guitaretab - guitar tabs
Song name
# A B C D E F G H I J K L M N O P Q R S T U V W X Y Z

Phil Wickham - Yours Alone tab

Yours Alone
Phil Wickham

Tabbed by: SWLABR

Tuning: Dropped D

Intro:
e|--------------------------------------------------------|
B|--------------------------------------------------------|
G|--------------------------------------------------------|
D|---4---4---2--2----2-4--4/9---9-9/7---4--4---2-4-5-4--|
A|--0---0-------------------------------------------------|
D|-0---0---0--0---0-0----0-----0--0-----0---0--0----------|

e|---------------------------------------------------------|
B|---------------------------------------------------------|
G|---------------------------------------------------------|
D|---4---4---2--2-4-5-4---4-4/9---9-11-12/4--4---2-4-5-4--|
A|--0---0--------------------------------------------------|
D|-0---0---0--0---------0-------0--0------0--0--0----------|

Verse:
e|--------------------------------------------------------|
B|--------------------------------------------------------|
G|--------------------------------------------------------|
D|---4---4---2--2----2-4--4/9---9-9/7---4--4---2-4-5-4--|
A|--0---0-------------------------------------------------|
D|-0---0---0--0---0-0----0-----0--0-----0---0--0----------|

e|--------------------------------------------------------|
B|--------------------------------------------------------|
G|--------------------------------------------------------|
D|---4---4---2--2----2-4--4/9---9-11-12/4--4---2-4-5-4--|
A|--0---0-------------------------------------------------|
D|-0---0---0--0---0-0----0-----0--0------0--0--0----------|

Fills:
e|-------------------------|
B|---/15-\10-/14-\7--------|
G|-------------------------|
D|---/12--\7-/11-\4--------|
A|-------------------------|
D|-------------------------|
[ Tab from: http://www.guitaretab.com/p/phil-wickham/116124.html ]
Pre Chorus:
e|-------------------------------------------------------------------------|
B|-------------------------------------------------------------------------|
G|------4-----4-----------6-----6-----------7-----7----------11----11------|
D|-------------------------------------------------------------------------|
A|--2-2---2-2---2-2-2/4-4---4-4---4-4-4/5-5---5-5---5-5-5/9-9--9-9----9-9/-|
D|-------------------------------------------------------------------------|

e|-------------------------------------------------------------------------|
B|-------------------------------------------------------------------------|
G|------4-----4-----------6-----6-----------7-----7-----------9-9-9-9-9-9--|
D|-------------------------------------------------------------------------|
A|--2-2---2-2---2-2-2/4-4---4-4---4-4-4/5-5---5-5---5-5-5/7-7-7-7-7-7-7-7--|
D|-------------------------------------------------------------------------|

Chorus:
   D   Em           Bm         A
So I put my life in Your hands
           Em  Bm            G
I'm Yours alone, I'm Yours alone
   D   Em               Bm       A
Surrender, Lord I raise my hands
        Em  Bm         G
To You alone, to You alone


Chorus Chord Diagram:

    D    Em   Bm   A    Em   Bm  G
e|-----------------------------------|
B|-----------------------------------|
G|--7----9----4----2---0----4----0---|
D|--7----9----4----2---2----4----5---|
A|--5----7----2----0---2----2----5---|
D|---------------------2---------5---|


Lord You are the anchor
Refuge in the storm
Your words are wisdom
Shining in the dark

I hear Your voice on the water
I feel Your touch in the wind
Your above and beneath me
Surround my heart again

And I know that You are good
God I know that all You do is good

So I put my life in Your hands
I'm Yours alone, I'm Yours alone
Surrender, Lord I raise my hands
To You alone, to You alone

Lord Your voice guides me 
So Tell me what to do
Your heart it drives me
To follow after You

Related for Yours Alone tab