Song name
# A B C D E F G H I J K L M N O P Q R S T U V W X Y Z

Phil Wickham - The Light Will Come tab

Help us improve GuitareTab! Take a short survey!
-------------------------------------------------------------------------------
			     THE LIGHT WILL COME - Phil Wickham
-------------------------------------------------------------------------------
Tabbed by: sk1mboard3r
Email: sk1mboard3r@gmail.com

I was inspired to tab this because its no where on the Internet yet. Its not perfect 
there are no videos of
Phil playin it anywhere. It sounds pretty good with the recording. It will take time to 
out the fingering but i
promise its possible. The spacing is not to the beat and neither are the words. Please 
me improve this tab if
you can find mistakes. (sk1mboard3r@gmail.com) Have fun!


Tuning: Half-Step Down

Intro:

eb|---4---------4---7-4------2-----------0------------------------------------|
Bb|---------5----------------------0-----------0------------------------------|
Gb|-------4-------4-----4--------1-----------1--------------------------------|
Db|---6-6-----6--------------1-1-----1---2-2-----2----------------------------|
Ab|---------------------------------------------------------------------------|
Eb|---------------------------------------------------------------------------| x2

Verse:

eb|---4---------4---7-4------2-----------0------------------------------------|
Bb|---------5----------------------0-----------0------------------------------|
Gb|-------4-------4-----4--------1-----------1--------------------------------|
Db|---6-6-----6--------------1-1-----1---2-2-----2----------------------------|
Ab|---------------------------------------------------------------------------|
Eb|---------------------------------------------------------------------------| x2

         To      the one with the  wounded heart
The years   fighting have     left you scarred

eb|---5-----------4-----------2---------2-------------------------------------|
Bb|---------5-----------5-----------0---------0-------------------------------|
Gb|-------6-----------4-----------2---------2---------------------------------|
Db|---7-7-----7---6-6-----6---0-0-----0---0-----0-----------------------------|
Ab|---------------------------------------------------------------------------|
Eb|---------------------------------------------------------------------------|

      Wait      the light   will come

eb|---4---------4---7-4------2-----------0------------------------------------|
Bb|---------5----------------------0-----------0------------------------------|
Gb|-------4-------4-----4--------1-----------1--------------------------------|
Db|---6-6-----6--------------1-1-----1---2-2-----2----------------------------|
Ab|---------------------------------------------------------------------------|
Eb|---------------------------------------------------------------------------| x2

        To       the one with the   distant eyes
        All       this crying has      left you dry

eb|---5-----------4-----------2---------2----------------------------------------|
Bb|---------5-----------5-----------0---------0----------------------------------|
Gb|-------6-----------4-----------2---------(2)----------------------------------|
Db|---7-7-----7---6-6-----6---0-0-----0---0-----(0)------------------------------|
Ab|------------------------------------------------------------------------------|
Eb|------------------------------------------------------------------------------| x2

       Wait        the light   will come         (Only 1st repeat)
       Wait        the light   will come

Chorus:

eb|---7-----------9---------------10--------------10----9---------------------|
Bb|---------8-------------10---------------12---------------------------------|
Gb|-------7-------------9---------------11------------------------------------|
Db|---9-9-----9---11-11------11---12-12-------12-----12---11------------------|
Ab|---------------------------------------------------------------------------|
Eb|---------------------------------------------------------------------------|

        Lift                 your                     eyes             the Son   has

eb|---7-----------3---------2---------2---------------------------------------|
Bb|---------8---------3-----------0-------0-----------------------------------|
Gb|-------7---------4-----------2---------------------------------------------|
Db|---9-9-----9---5-----5---0-0-----0---0-------------------------------------|
Ab|---------------------------------------------------------------------------|
Eb|---------------------------------------------------------------------------|

        ov    -    er come   the night

eb|---7-----7-----9-------9-------10-------10-----10----9---------------------|
Bb|---------------------------------------------------------------------------|
Gb|-------7-------------9---------------11------------------------------------|
Db|---9-9-----9---11-11-----11----12-12-------12-----12---11------------------|
Ab|---------------------------------------------------------------------------|
Eb|---------------------------------------------------------------------------|

          Come           a             -             live                    as        we


eb|---7-----7-----9-------9-------10-------10------9--------------------------|
Bb|--------------------------------------------------------10-----------------|
Gb|-------7-------------9---------------11---------------9--------------------|
Db|---9-9-----9---11-11-----11----12-12-------12---11-11------11--------------|
Ab|---------------------------------------------------------------------------|
Eb|---------------------------------------------------------------------------|

          shine            in                 loves                 true

eb|---7-----7-----7-----------5-------5---------------------------------------|
Bb|---------------------8---------5-------------------------------------------|
Gb|-------7-----------7---------6---------------------------------------------|
Db|---9-9-----9---9-9-----9---7-----7-----------------------------------------|
Ab|---------------------------------------------------------------------------|
Eb|---------------------------------------------------------------------------|

             light

Intro (see above tab)

Verse 2 (see above tab)

Here is laughter beyond the tears
Here is courage to face your fears
Look the light has come
So rise you daughters and stand you sons
Claim the victory that Jesus won
Look the Light has come
Look the Light has come

Chorus (see above tab)

Interlude:

eb|---2-------3---5-------10---9-------9---7-----7---5-------7---3---3-3---5--|
Bb|---------------------------------------------------------------------------|
Gb|-------2-----------6--------------9---------7---------6---------4----------|
Db|---4-4-----5---7-7-----12---11-11-------9-9-------7-7-----9---5-----5---7--|
Ab|---------------------------------------------------------------------------|
Eb|---------------------------------------------------------------------------|

eb|---2-------3---5-------10---12-------12---10-------10---9-------9-9-------9-|
Bb|----------------------------------------------------------------------------|
Gb|-------2-----------6--------------13------------11------------9---------9---|
Db|---4-4-----5---7-7-----12---14-14---------12-12---------11-11-----11-11-----|
Ab|----------------------------------------------------------------------------|
Eb|----------------------------------------------------------------------------|

Chorus (see above)

Intro (see above)

Ending:

eb|---5-----------4-----------2---------2-------------------------------------|
Bb|---------5-----------5-----------0---------0-------------------------------|
Gb|-------6-----------4-----------2---------2---------------------------------|
Db|---7-7-----7---6-6-----6---0-0-----0---0-----0-----------------------------|
Ab|---------------------------------------------------------------------------|
Eb|---------------------------------------------------------------------------|

eb|---5-----------4-----------2-----------------------------------------------|
Bb|---------5-----------5-----------------------------------------------------|
Gb|-------6-----------4-------------------------------------------------------|
Db|---7-7-----7---6-6-----6---0-----------------------------------------------|
Ab|---------------------------------------------------------------------------|
Eb|---------------------------------------------------------------------------|
Related for The Light Will Come tab