Song name
# A B C D E F G H I J K L M N O P Q R S T U V W X Y Z

Phil Wickham - Divine Romance tab

Divine Romance Ė Phil Wickham
Tuning Ė half step lower

This is the way I play it. I know for sure that the verses are correct, but as for the
for the chorus, I canít really hear it, so I made my own version. At the top of the bars
will see that I also put down the chords you are playing so you donít end up doing weird 
when you donít have to. I also put in the lyrics (like you donít know them..).
hope you like it! P.s. I know I got some of the chord names wrong so I named them myself.

Intro

    E7     Am2                                   C         G
Eb|-------------------------------------------------------------------0~----|
bb|-------1-----------1---------1---------------1-------------------1----1~-|
gb|-0h2---------0-----------0---------0---0h2---------0---------0-----------|
db|-----3---2-----2-------2---------2---------3---2-----2-----0-------------|
ab|-----------0-----0---0-----0---0-----0-----------3-----0-----------------|
eb|---------------------------------------------------------3-----3---------|

   E7      Am2                                    C         G
|---------------------------------------------------------------------------|
|--------1-----------1---------1---------------1---------------------1------|
|--0h2---------0-----------0---------0---0h2---------0---------0---------0~-|
|------3---2-----2-------2---------2---------3---2-----2-----0-----0--------|
|------------0-----0---0-----0---0-----0-----------3-----0------------------|
|----------------------------------------------------------3-----3-----3----|


Verse 1

   E7      Am2                                   C         G
|---------------------------------------------------------------------------|
|--------1-----------1---------1---------------1---------------------1------|
|--0h2---------0-----------0---------0---0h2---------0---------0---------0~-|
|------3---2-----2-------2---------2---------3---2-----2-----0-----0--------|
|------------0-----0---0-----0---0-----0-----------3-----0------------------|
|----------------------------------------------------------3-----3-----3----|
	The fullness of                      Your grace is here with me

  E7      Am2                                   C         G
|---------------------------------------------------------------------------|
|-------1-----------1---------1---------------1-----------------------------|
|-0h2---------0-----------0---------0---0h2---------0---------0-------0-----|
|-----3---2-----2-------2---------2---------3---2-----2-----0-----0h2-----0-|
|-----------0-----0---0-----0---0-----0-----------3-----0-------------------|
|---------------------------------------------------------3-----3-------3---|
	The richness off                    Your beautyís all I see

   E7      Am2                                   C         G
|---------------------------------------------------------------------------|
|--------1-----------1---------1---------------1---------------------1------|
|--0h2---------0-----------0---------0---0h2---------0---------0---------0~-|
|------3---2-----2-------2---------2---------3---2-----2-----0-----0--------|
|------------0-----0---0-----0---0-----0-----------3-----0------------------|
|----------------------------------------------------------3-----3-----3----|
	The brightness of                    Your glory has arrived
   E7      Am2                                   C         G
|--------------------------------------------------------------------0~-----|
|--------1-----------1---------1---------------1-------------------1----1~--|
|--0h2---------0-----------0---------0---0h2---------0---------0------------|
|------3---2-----2-------2---------2---------3---2-----2-----0--------------|
|------------0-----0---0-----0---0-----0-----------3-----0------------------|
|----------------------------------------------------------3-----3----------|
	In Your presence, God                Iím completely satisfied

Chorus

    E7                  C         G
|-------0--------------------------------------|
|---------1-------1----------------------------|
|---0h2-----2---2---2-------0---------0--------|
|-------------3-------3---2---0-----0------0---|     2x
|-----------------------3-------0--------------|
|---------------------------------3------3-----|
For you, I sing I dance
Rejoice in this Divine Romance

    E7        G   Am2                   G
|-------0---------------------0-------------------3--------3~---------------|
|---------1-----------------1---1---------------1-----1----0~---------------|
|---0h2-----2---0---------0-------0---------0-------------------------------|
|-------------3-----0---2-----------2-----0---------------------------------|
|---------------------0---------------0-------------------------------------|
|-----------------3---------------------3-----3-----3---3-------------------|
	Lift my heart, and my hands, to show my loooooove..    To show my love

Interlude

  E7      Am2                                   C         G
|---------------------------------------------------------------------------|
|-------1-----------1---------1---------------1-----------------------------|
|-0h2---------0-----------0---------0---0h2---------0---------0-------0-----|
|-----3---2-----2-------2---------2---------3---2-----2-----0-----0h2-----0-|
|-----------0-----0---0-----0---0-----0-----------3-----0-------------------|
|---------------------------------------------------------3-----3-------3---|

   E7     Am2                                   C         G
|---------------------------------------------------------------------------|
|--------1-----------1---------1---------------1-------------------1-0------|
|--0h2---------0-----------0---------0---0h2---------0---------0---------0--|
|------3---2-----2-------2---------2---------3---2-----2-----0--------------|
|------------0-----0---0-----0---0-----0-----------3-----0------------------|
|----------------------------------------------------------3-----3-----3----|

Verse 2

  E7      Am2                                   C         G
|---------------------------------------------------------------------------|
|-------1-----------1---------1---------------1-----------------------------|
|-0h2---------0-----------0---------0---0h2---------0---------0-------0-----|
|-----3---2-----2-------2---------2---------3---2-----2-----0-----0h2-----0-|
|-----------0-----0---0-----0---0-----0-----------3-----0-------------------|
|---------------------------------------------------------3-----3-------3---|
	A deep, deep love                     An ocean flows from you
  E7      Am2                                   C         G
|---------------------------------------------------------------------------|
|-------1-----------1---------1---------------1-----------------------------|
|-0h2---------0-----------0---------0---0h2---------0---------0-------0-----|
|-----3---2-----2-------2---------2---------3---2-----2-----0-----0h2-----0-|
|-----------0-----0---0-----0---0-----0-----------3-----0-------------------|
|---------------------------------------------------------3-----3-------3---|
	Of deep, deep love                   Yeah, itís filling up the room

   E7     Am2                                   C         G
|----------------------------------------------------------------------3----|
|--------1-----------1---------1---------------1-------------------0h1---1--|
|--0h2---------0-----------0---------0---0h2---------0---------0------------|
|------3---2-----2-------2---------2---------3---2-----2-----0--------------|
|------------0-----0---0-----0---0-----0-----------3-----0------------------|
|----------------------------------------------------------3-----3----------|
	Your innocent blood                   Has washed my guilty life

   E7      Am2                                   C         G
|---------------------------------------------------------------------------|
|--------1-----------1---------1---------------1---------------------1------|
|--0h2---------0-----------0---------0---0h2---------0---------0---------0~-|
|------3---2-----2-------2---------2---------3---2-----2-----0-----0--------|
|------------0-----0---0-----0---0-----0-----------3-----0------------------|
|----------------------------------------------------------3-----3-----3----|
	In Your presence, God                 Iím completely satisfied

Chorus

E7*                 C   G    E7*                      C    G
For you, I sing I dance,  Rejoice, in this Divine Romance,

E7*                G   Am2                  G1     G
Lift my heart, and my hands, To show my looooooove, to show my love


E7* Am2    E7* C G1 G

E7* Am2    E7* C G

E7*                 C   G    E7*                      C    G
For you, I sing I dance,  Rejoice, in this Divine Romance,

E7*                G   Am2                  G1     G
Lift my heart, and my hands, To show my looooooove, to show my love   2x


  E7      Am2                                   C         G
|---------------------------------------------------------------------------|
|-------1-----------1---------1---------------1-----------------------------|
|-0h2---------0-----------0---------0---0h2---------0---------0-------0-----|
|-----3---2-----2-------2---------2---------3---2-----2-----0-----0h2-----0-|
|-----------0-----0---0-----0---0-----0-----------3-----0-------------------|
|---------------------------------------------------------3-----3-------3---|

  E7      Am2                                   C         G           G
|-----------------------------------------------------------------|
|-------1-----------1---------1---------------1-------------------|
|-0h2---------0-----------0---------0---0h2---------0---------0---|
|-----3---2-----2-------2---------2---------3---2-----2-----0-----|
|-----------0-----0---0-----0---0-----0-----------3-----0---------|
|---------------------------------------------------------3-----3-|

Outro

E7* Am2    E7* C G1 G

E7* Am2    E7* C G          over and over again until the song ends


  *E7 is to be played like this:
|--0--|
|--1--|
|--0h2|
|--3--|
|--3--|
|--x--|

Chords:
     E7       Am2        C        G1         G
Eb|--0--|   |--0--|   |--0--|   |--3--|   |--3--|
bb|--1--|   |--1--|   |--1--|   |--1--|   |--0--|
gb|--2--|   |--0--|   |--0--|   |--0--|   |--0--|
db|--3--|   |--2--|   |--2--|   |--0--|   |--0--|
ab|--3--|   |--0--|   |--3--|   |--2--|   |--2--|
eb|--x--|   |--X--|   |--X--|   |--3--|   |--3--|

Tablature Legend
----------------
 h   - hammer-on
 p   - pull-off
 b   - bend
 pb  - pre-bend
 r   - bend release (if no number after the r, then release immediately)
 /\  - slide into or out of (from/to "nowhere")
 s   - legato slide
 S   - shift slide
 - natural harmonic
[n]  - artificial harmonic
n(n) - tapped harmonic
 ~   - vibrato
 tr  - trill
 T   - tap
 TP  - trem. picking
 PM  - palm muting
\n/  - tremolo bar dip; n = amount to dip
 \n  - tremolo bar down
 n/  - tremolo bar up
/n\  - tremolo bar inverted dip
 =   - hold bend; also acts as connecting device for hammers/pulls
 <> - volume swell (louder/softer)
 x   - on rhythm slash represents muted slash
 o   - on rhythm slash represents single note slash
Tap to rate this tab
# A B C D E F G H I J K L M N O P Q R S T U V W X Y Z