Song name
# A B C D E F G H I J K L M N O P Q R S T U V W X Y Z

Phil Wickham - Heaven And Earth tab

This is another great song from Phil Wickham's new album Heaven and Earth.
I was looking around for this tab and found them all to be wrong, so here's the accurate 
(tabbed from the acoustic version of Heaven and Earth).

-------------------------------------------------------------------------------
			     Heaven and Earth - Phil Wickham
-------------------------------------------------------------------------------
Tabbed by: David D.

Tuning: Drop D (tune the low E string to D)
Listen to the song for strumming patterns.

It's played with bar chords, and I don't know the names of them, but here they are (each 
is repeated ~8x):

Intro (x2)/Verses(x4):

e|---------------------------------------------------------------------------|
B|---------------------------------------------------------------------------|
G|---------------------------------------------------------------------------|
D|--9------5------0----------------------------------------------------------|
A|--9------5------0----------------------------------------------------------|
D|--9------5------0----------------------------------------------------------|

Chorus:

e|---------------------------------------------------------------------------|
B|---------------------------------------------------------------------------|
G|---------------------------------------------------------------------------|
D|--5----7-----9--------5----7----12----------5-----7-----9-----7------------|
A|--5----7-----9--------5----7----12----------5-----7-----9-----7------------|
D|--5----7-----9--------5----7----12----------5-----7-----9-----7------------|

[Verse]

[Chorus x2]

[Play open D A D strings]

Bridge:

e|---------------------------------------------------------------------------|
B|---------------------------------------------------------------------------|
G|---------------------------------------------------------------------------|
D|--5----7-----9---12-----5----7----12---7---12---7------9--7--5-------------|
A|--5----7-----9---12-----5----7----12---7---12---7------9--7--5-------------|
D|--5----7-----9---12-----5----7----12---7---12---7------9--7--5-------------|

[Chorus]
Tap to rate this tab
# A B C D E F G H I J K L M N O P Q R S T U V W X Y Z