Song name
# A B C D E F G H I J K L M N O P Q R S T U V W X Y Z

Phil Wickham - Heaven And Earth tab

I tabbed this song to the best of my ability.
It's based off the record version and it's in the key of E (standard tuning for once).
This is for the lead electric.

Intro

e------------------------------|
B-10h13-15--12-------5h8-10--7-|
G------------------------------|
D------------------------------|
A------------------------------|
E------------------------------|

1st Verse
No Guitars

1st Chorus
e-------------------------------------------|
B-12-14-15-----12-14--------12-14-15-----14-|
G--------------------14---------------------|
D-------------------------------------------|
A-------------------------------------------|
E-------------------------------------------|

Fill
e------------------------------------------------------------------|
B-10h13-15--12-------5h8-10--7--------10h13-15--12-------5h8-10--7-|
G------------------------------------------------------------------|
D------------------------------------------------------------------|
A------------------------------------------------------------------|
E------------------------------------------------------------------|

2nd Verse
I'm not going to tab this part, as it's above my skill (and patience) level. Basically 
screw around in E, particularly on the A and D strings

2nd Chorus
e------------------------------------------------|
B-12-14-15-----12-14-10-----12-14-15-----14(x13--|
G------------------------------------------------|
D------------------------------------------------|
A------------------------------------------------|
E------------------------------------------------|

2nd Chorus 2nd part
e----------------------------------------------------------------------------|
B-151515-141414--------151515-141414-------151515-141414-----------14(x8)-15-|
G---------------11(x8)---------------14(x8)--------------11(x8)-14(x8)-------|
D----------------------------------------------------------------------------|
A----------------------------------------------------------------------------|
E----------------------------------------------------------------------------|

Bridge
Again, I don't have the patience to tab this, but if you listen to the song and try to 
it, you'll be fine.

Solo: Do tiny bends on the notes and about a quarter-half bend on the 9.
e------------------9(x14)--14(x14--|
B----------------------------------|
G-11(x14)--7(x14)------------------|
D----------------------------------|
A----------------------------------|
E----------------------------------|


3rd Chorus: Understandable if you have trouble jumping straight from the solo into this, 
make sure that at least you hit the first 15.
Crescendo the last set of 14s.
e------------------------------------------------|
B-12-14-15-----12-14-10-----12-14-15-----14(x13--|
G------------------------------------------------|
D------------------------------------------------|
A------------------------------------------------|
E------------------------------------------------|

3rd Chorus Part 2
e--------------------------------------------------------------12(x16)------|
B-151515-141414--------151515-141414-------151515-141414--------------------|
G---------------11(x8)---------------14(x8)--------------11(x8)-------------|
D---------------------------------------------------------------------------|
A---------------------------------------------------------------------------|
E---------------------------------------------------------------------------|

2nd Bridge
(1st and 3rd time)
e----------------------------------------------------------------------------|
B-121212-141414-1515-141414-1515151717-151515-171717-1919-151515-171717-1919-|
G----------------------------------------------------------------------------|
D----------------------------------------------------------------------------|
A----------------------------------------------------------------------------|
E----------------------------------------------------------------------------|

2nd time: slight bend on the last set of 19s
e--------------------------------------------------------------------------|
B-121212-141414-1515-141414-1515151717-151515-171717-1919-1919191919191919-|
G--------------------------------------------------------------------------|
D--------------------------------------------------------------------------|
A--------------------------------------------------------------------------|
E--------------------------------------------------------------------------|

4th time:
e---------------------------------------------------------1717171717171717-|
B-121212-141414-1515-141414-1515151717-151515-171717-1919------------------|
G--------------------------------------------------------------------------|
D--------------------------------------------------------------------------|
A--------------------------------------------------------------------------|
E--------------------------------------------------------------------------|

Outro:Do a bit of vibrato on the 19
e-14-17-19-|
B----------|
G----------|
D----------|
A----------|
E----------|

Just as a sort of apology to those I may have upset by not tabbing the 2nd verse or 1st 
I'm sorry.
Tabbing is very time-consuming and requires listening to a song dozens of times in a row.
It also requires a fair bit of skill and a good ear, neither of which I have in abundance.
I did not want to end up hating one of my favorite songs as a result of tabbing it.
Tap to rate this tab
 
# A B C D E F G H I J K L M N O P Q R S T U V W X Y Z