Song name
# A B C D E F G H I J K L M N O P Q R S T U V W X Y Z

Phil Wickham - Cannons tab

Hey this is my version of the song. It fits in the song really good. Some parts of 
it are the real tabs. Enjoy!:)

Intro:

e|------------15-15--14-14-15-12-12-----------15-15--14-14-15-15--------|
B|---13-13-12------------------------13-13-12---------------------13-13-|
G|----------------------------------------------------------------------|
D|----------------------------------------------------------------------|
A|----------------------------------------------------------------------|
E|----------------------------------------------------------------------| X2


Verse 1:

e|---------------------------------|
B|--------------------------7------|
G|------5---------------7----7-----|
D|----5---5-----5-----7---7---7----|
A|--3---------5---5-5----------5---|
E|----------3----------------------|

I hear it in the thunder and the rain.

e|---------------------------------------------------------------------------|
B|---------------------------------------------------------------------------|
G|--------------7---------------9-------5---------------7-------7------------|
D|------5-----7---7-----7-----9---9---5---5-----5-----7---7---7---7----------|
A|----5---5-5---------7---7-7-------3---------5---5-5-------5----------------|
E|--3---------------5-----------------------3--------------------------------|

Its ringing the the skies...


Chorus: 

e|---------------------------------------------------------------------------|
B|---0---7h8-----7h8-----7h8-------0---7h8-----7h8-----7h8-------------------|
G|-----------5-------4-------2-4-5---------5-------4-------2-4---------------|
D|---------------------------------------------------------------------------|
A|---------------------------------------------------------------------------|
E|---------------------------------------------------------------------------|

Were singing, You are holy...

Interlude:

e|------------15-15--14-14-15-12-12-----------15-15--14-14-15-15--------|
B|---13-13-12------------------------13-13-12---------------------13-13-|
G|----------------------------------------------------------------------|
D|----------------------------------------------------------------------|
A|----------------------------------------------------------------------|
E|----------------------------------------------------------------------| X2


Verse 2:

e|---------------------------------------------------------------------------|
B|---------------------------------------------------------------------------|
G|--------------7---------------9-------5---------------7-------7------------|
D|------5-----7---7-----7-----9---9---5---5-----5-----7---7---7---7----------|
A|----5---5-5---------7---7-7-------3---------5---5-5-------5----------------|
E|--3---------------5-----------------------3--------------------------------| X2


Bridge:

e|-------------------------------------------------------------------|
B|-------------------------------------------------------------------|
G|-------5-------5---------------7-------5-------5---------------7---|
D|-----5---5---5---5-----5-----7---7---5---5---5---5-----5-----7---7-|
A|---3-------3---------5---5-5-------3-------3---------5---5-5-------|
E|-------------------3-------------------------------3---------------|

All glory, honor, power...

e|---------------------------------------------------------------------------|
B|---------------------------------------------------------------------------|
G|-------5-------5-----------------------7-------7-------7-------7-----------|
D|-----5---5---5---5-----5-------5-----7---7---7---7---7---7---7---7---------|
A|---3-------3---------5---5---5---5-5-------5-------5-------5---------------|
E|-------------------3-------3-----------------------------------------------|

All glory, honor, power is yours forever amen.

Outro:

e|------------15-15--14-14-15-12-12-----------15-15--14-14-15-15--------|
B|---13-13-12------------------------13-13-12---------------------13-13-|
G|----------------------------------------------------------------------|
D|----------------------------------------------------------------------|
A|----------------------------------------------------------------------|
E|----------------------------------------------------------------------| X2  End 
on a G power chord.


Sequence:

Intro
Verse
Chorus
Interlude
Chorus
Bridge
Chorus X2
Outro

Tap to rate this tab
 
# A B C D E F G H I J K L M N O P Q R S T U V W X Y Z