Song name
# A B C D E F G H I J K L M N O P Q R S T U V W X Y Z

Phil Wickham - Cannons tab

Tabbed By: Robin Strugari
E-mail: robinstrugari@gmail.com

Hi. Im pretty sure this is the exact tab played in the recording. E-mail me if you 
have and suggestions, questions, or concerns. Enjoy:)

Intro:

e|-------------------------------------------------------------------------------|
B|---3-2-10-10-10-10-10-9-9-10-7-7-7-7-7-3-3-2-10-10-10-10-10-9-9-10-3-3-3-3-3---|
G|-------------------------------------------------------------------------------|
D|-------------------------------------------------------------------------------|
A|-------------------------------------------------------------------------------|
E|-------------------------------------------------------------------------------| X 2


Verse 1:

Lead and Bass don't play first part. 

e|------------------------------------------------------------------|
B|------------------------------------------------------------------|
G|---------------9----------------11--------7---------------9-------|
D|-------7-----9---9-----9-----11----11---7---7-----7-----9---9-----|
A|-----7---7-7---------9---9-9----------5---------7---7-7-------7---|
E|---5---------------7--------------------------5-------------------|


Chorus:

e|----------------------------|
B|---2----7-------------------|
G|----------6----9-6----9-4---|
D|----------------------------|
A|----------------------------|
E|----------------------------| X 2


Interlude:

e|-------------------------------------------------------------------------------|
B|---3-2-10-10-10-10-10-9-9-10-7-7-7-7-7-3-3-2-10-10-10-10-10-9-9-10-3-3-3-3-3---|
G|-------------------------------------------------------------------------------|
D|-------------------------------------------------------------------------------|
A|-------------------------------------------------------------------------------|
E|-------------------------------------------------------------------------------| x 1


Verse 2:

e|------------------------------------------------------------------|
B|------------------------------------------------------------------|
G|---------------9----------------11--------7---------------9-------|
D|-------7-----9---9-----9-----11----11---7---7-----7-----9---9-----|
A|-----7---7-7---------9---9-9----------5---------7---7-7-------7---|
E|---5---------------7--------------------------5-------------------|

e|--------------------------------------|
B|-------------7----------7-------------|
G|---6----9----7----11----7----6----9---|
D|---7----9----9----11----7----7----9---|
A|---7----7---------9----------7----7---|
E|--------------------------------------|


Chorus:

e|----------------------------|
B|---2----7-------------------|
G|----------6----9-6----9-4---|
D|----------------------------|
A|----------------------------|
E|----------------------------| X 2


Bridge:

e|-----------------------------------------------------------------------------------
B|-----------------------------------------------------------------------------------
G|---7-7-7-7-7-7-7-7-6-6-6-6-9-9-9-9-9-9-9-9-7-7-7-7-7-7-7-7-6-6-6-6-9-9-9-9-9-9-9-9-
D|---7-7-7-7-7-7-7-7-7-7-7-7-9-9-9-9-9-9-9-9-7-7-7-7-7-7-7-7-7-7-7-7-9-9-9-9-9-9-9-9-
A|---5-5-5-5-5-5-5-5-7-7-7-7-7-7-7-7-7-7-7-7-5-5-5-5-5-5-5-5-7-7-7-7-7-7-7-7-7-7-7-7-
E|-----------------------------------------------------------------------------------

e|------------------------------------------------------------------|
B|------------------------------------------------------------------|
G|7-7-7-7-7-7-7-7-6-6-6-6-6-6-6-6-9-9-9-9-9-9-9-9-9-9-9-9-9-9-9-9---|
D|7-7-7-7-7-7-7-7-7-7-7-7-7-7-7-7-9-9-9-9-9-9-9-9-9-9-9-9-9-9-9-9---|
A|5-5-5-5-5-5-5-5-7-7-7-7-7-7-7-7-7-7-7-7-7-7-7-7-7-7-7-7-7-7-7-7---|
E|------------------------------------------------------------------|


Chorus: 

Play it twice but lead and bass don't play first time. Second time play:

e|----------------------------|
B|---2----7-------------------|
G|----------6----9-6----9-4---|
D|----------------------------|
A|----------------------------|
E|----------------------------| X 2


Outro:

e|-------------------------------------------------------------------------------|
B|---3-2-10-10-10-10-10-9-9-10-7-7-7-7-7-3-3-2-10-10-10-10-10-9-9-10-3-3-3-3-3---|
G|-------------------------------------------------------------------------------|
D|-------------------------------------------------------------------------------|
A|-------------------------------------------------------------------------------|
E|-------------------------------------------------------------------------------|

e|----------------------------------------------------------------------------------|
B|---3-2-10-10-10-10-10-9-9-10-7-7-7-7-7-3-3-2-10-10-10-10-10-9-9-7-7-5-5-3-3-1-1---|
G|----------------------------------------------------------------------------------|
D|----------------------------------------------------------------------------------|
A|----------------------------------------------------------------------------------|
E|----------------------------------------------------------------------------------|

************************************

| /   slide up
| \   slide down
| h   hammer-on
| p   pull-off
| ~   vibrato
| +   harmonic
| x   Mute note
| b   Bend
| pb  Pre-bend
| br  Bend release
| pbr Pre-bend release
| brb Bend release bend

***********************************
Tap to rate this tab
 
# A B C D E F G H I J K L M N O P Q R S T U V W X Y Z