Song name
# A B C D E F G H I J K L M N O P Q R S T U V W X Y Z

Phil Wickham - Divine Romance tab

Divine Romance (Intro)
Phil Wickham
Key: B

Tune guitar down 1/2 step
Play C voicing

Tabbed by weksa
Contact: weksa@live.com
Tutorial: http://www.youtube.com/watch?v=TAa6KCIeFlo
Based on the Singalong album version

   F         Am
e|----------------------------------------------------------------|
B|-------1--------------1---------1-------------------------------|
G|-0h2-----------0------------0---------0-------------------------|
D|----3-3-------2---2-------2---------2---------------------------|
A|-----3--3--0-------0-----0---0-----0---0------------------------|
E|-1--------------------------------------------------------------|

   F         C          G
e|----------------------------------------------------------------|
B|-------1--------------------1-0---------------------------------|
G|-0h2-----------0--------------------0---------------------------|
D|----3-3-------2---0-------0------0-----0------------------------|
A|-----3--3--3-------0--------------------------------------------|
E|-1--------------------3--3---3----------------------------------|


h  hammer-on
Tap to rate this tab
# A B C D E F G H I J K L M N O P Q R S T U V W X Y Z