Song name
# A B C D E F G H I J K L M N O P Q R S T U V W X Y Z

Phil Wickham - High Above tab

High Above - Phil Wickham

This is my first tab so please be gentle with reviews and comments :) I tried to find
this song everywhere and no one seems to have gotten it down, so i thought i would give it
a try. This sound almost exactly like the intro too :) Enjoy!

Tuning: [ C# | G# | C# | F# | A# | D# ]    <------------- (An easy way to do this is to 
change from
Or...      [ Db | Ab | Db | Gb | Bb | Eb ]                                  [ Standard
Tuning ] to [ Drop D ].

   Then tune all string [ Half-Step Down ])

 [ h ]= hammer-on

|------------------------------------------------------------------------------|
|-----------5---7--------------------------7---5-----------5-------------------|
|--------------------------6---7-------------------------------7---------------|
|------------------------------------------------------------------------------|
|-------0---------------0--------------0---------------0-----------------------|
|---0---------------0--------------0---------------0---------------------------|



|------------------------------------------------------------------------------|
|-----------5---7--------------------------7---5-----------5-------------------|
|--------------------------6---7-------------------------------7---------------|
|------------------------------------------------------------------------------|
|-------0---------------0--------------0---------------0-----------------------|
|---0---------------0--------------0---------------0---------------------------|



|--------------------------------------------------------5------------------|
|---------------3----------3----------------------3h-5----------------------|
|-----------4------------------4--------------------------------------------|
|------------------------------------------0--------------------------------|
|-------0---------------0--------------0------------------------------------|
|---0---------------0--------------0----------------------------------------|

[ End of Intro ]
Tap to rate this tab
# A B C D E F G H I J K L M N O P Q R S T U V W X Y Z