Song name
# A B C D E F G H I J K L M N O P Q R S T U V W X Y Z

Phil Wickham - Heaven Fall Down tab

E-13------------13-----------|
B----------------------------|
G---13-15--------13-15-------|
D--------15-----------13-----|
A-----------------------16---|
E----------------------------| (2X)

E-13------------13-----------|
B---------------------13-14--|
G---13-15--------13-15-------|
D--------15------------------|
A----------------------------|
E----------------------------|
Tap to rate this tab
# A B C D E F G H I J K L M N O P Q R S T U V W X Y Z